0
SECTION
2
HEADER
9
$INSUNITS
70
4
9
$ACADVER
1
AC1014
9
$HANDSEED
5
FFFF
0
ENDSEC
0
SECTION
2
TABLES
0
TABLE
2
VPORT
5
8
100
AcDbSymbolTable
0
ENDTAB
0
TABLE
2
LTYPE
5
5
100
AcDbSymbolTable
0
LTYPE
5
14
100
AcDbSymbolTableRecord
100
AcDbLinetypeTableRecord
2
BYBLOCK
70
0
0
LTYPE
5
15
100
AcDbSymbolTableRecord
100
AcDbLinetypeTableRecord
2
BYLAYER
70
0
0
ENDTAB
0
TABLE
2
LAYER
5
2
100
AcDbSymbolTable
70
2
0
LAYER
5
50
100
AcDbSymbolTableRecord
100
AcDbLayerTableRecord
2
0
70
0
6
CONTINUOUS
0
ENDTAB
0
TABLE
2
STYLE
5
3
100
AcDbSymbolTable
70
1
0
STYLE
5
11
100
AcDbSymbolTableRecord
100
AcDbTextStyleTableRecord
2
STANDARD
70
0
0
ENDTAB
0
TABLE
2
VIEW
5
6
100
AcDbSymbolTable
70
0
0
ENDTAB
0
TABLE
2
UCS
5
7
100
AcDbSymbolTable
70
0
0
ENDTAB
0
TABLE
2
APPID
5
9
100
AcDbSymbolTable
70
2
0
APPID
5
12
100
AcDbSymbolTableRecord
100
AcDbRegAppTableRecord
2
ACAD
70
0
0
ENDTAB
0
TABLE
2
DIMSTYLE
5
A
100
AcDbSymbolTable
70
1
0
ENDTAB
0
TABLE
2
BLOCK_RECORD
5
1
100
AcDbSymbolTable
70
1
0
BLOCK_RECORD
5
1F
100
AcDbSymbolTableRecord
100
AcDbBlockTableRecord
2
*MODEL_SPACE
0
BLOCK_RECORD
5
1B
100
AcDbSymbolTableRecord
100
AcDbBlockTableRecord
2
*PAPER_SPACE
0
ENDTAB
0
ENDSEC
0
SECTION
2
BLOCKS
0
BLOCK
5
20
100
AcDbEntity
100
AcDbBlockBegin
2
*MODEL_SPACE
0
ENDBLK
5
21
100
AcDbEntity
100
AcDbBlockEnd
0
BLOCK
5
1C
100
AcDbEntity
100
AcDbBlockBegin
2
*PAPER_SPACE
0
ENDBLK
5
1D
100
AcDbEntity
100
AcDbBlockEnd
0
ENDSEC
0
SECTION
2
ENTITIES
0
LINE
5
100
100
AcDbEntity
8
0
100
AcDbLine
10
-81.499999999999986
20
80
30
0
11
-81.499999999999986
21
100.00455183237655
31
0
0
SPLINE
5
101
100
AcDbEntity
8
0
100
AcDbSpline
70
4
71
5
72
17
73
11
74
0
42
0.000000001
43
0.0000000001
44
0.0000000001
40
0.46927398887924165
40
0.46927398887924165
40
0.46927398887924165
40
0.46927398887924165
40
0.46927398887924165
40
0.46927398887924165
40
0.5
40
0.59999999999999998
40
0.69999999999999996
40
0.79999999999999993
40
0.89999999999999991
40
1
40
1
40
1
40
1
40
1
40
1
41
1
41
1
41
1
41
1
41
1
41
1
41
1
41
1
41
1
41
1
41
1
10
-81.499999999999943
20
100.00455183237655
30
0
10
-82.929086289292513
20
100.01375385511103
30
0
10
-88.913636294582247
20
100.10705484991263
30
0
10
-98.675287735197116
20
100.85114553303173
30
0
10
-109.82987697088177
20
105.18346648322523
30
0
10
-118.44228550748085
20
119.50263385178857
30
0
10
-122.57168511750376
20
146.3363816278387
30
0
10
-124.38144877697707
20
172.03921168311172
30
0
10
-126.62478512646712
20
191.32921618330738
30
0
10
-128.76709753895554
20
203.83548769477753
30
0
10
-130
20
210
30
0
0
SPLINE
5
102
100
AcDbEntity
8
0
100
AcDbSpline
70
4
71
5
72
16
73
10
74
0
42
0.000000001
43
0.0000000001
44
0.0000000001
40
0
40
0
40
0
40
0
40
0
40
0
40
0.20000000000000001
40
0.40000000000000002
40
0.60000000000000009
40
0.80000000000000004
40
1
40
1
40
1
40
1
40
1
40
1
41
1
41
1
41
1
41
1
41
1
41
1
41
1
41
1
41
1
41
1
10
-130
20
210
30
0
10
-130.07898789568671
20
210.39493947843346
30
0
10
-130.35647018129049
20
211.24294905206821
30
0
10
-131.13097710244901
20
212.68914446814841
30
0
10
-132.85626234076807
20
214.87104846591711
30
0
10
-136.31125216152299
20
217.54960171000755
30
0
10
-140.49189997232443
20
219.18282518156704
30
0
10
-144.74653274862516
20
219.85134429563175
30
0
10
-148.15364554505007
20
220
30
0
10
-150
20
220
30
0
0
SPLINE
5
103
100
AcDbEntity
8
0
100
AcDbSpline
70
4
71
5
72
16
73
10
74
0
42
0.000000001
43
0.0000000001
44
0.0000000001
40
0
40
0
40
0
40
0
40
0
40
0
40
0.20000000000000001
40
0.40000000000000002
40
0.60000000000000009
40
0.80000000000000004
40
1
40
1
40
1
40
1
40
1
40
1
41
1
41
1
41
1
41
1
41
1
41
1
41
1
41
1
41
1
41
1
10
-170
20
210
30
0
10
-169.92101210431329
20
210.39493947843346
30
0
10
-169.64352981870951
20
211.24294905206821
30
0
10
-168.86902289755099
20
212.68914446814841
30
0
10
-167.14373765923193
20
214.87104846591711
30
0
10
-163.68874783847701
20
217.54960171000755
30
0
10
-159.50810002767557
20
219.18282518156704
30
0
10
-155.25346725137484
20
219.85134429563175
30
0
10
-151.84635445494993
20
220
30
0
10
-150
20
220
30
0
0
SPLINE
5
104
100
AcDbEntity
8
0
100
AcDbSpline
70
4
71
5
72
17
73
11
74
0
42
0.000000001
43
0.0000000001
44
0.0000000001
40
0.46927398887924154
40
0.46927398887924154
40
0.46927398887924154
40
0.46927398887924154
40
0.46927398887924154
40
0.46927398887924154
40
0.5
40
0.59999999999999998
40
0.69999999999999996
40
0.79999999999999993
40
0.89999999999999991
40
1
40
1
40
1
40
1
40
1
40
1
41
1
41
1
41
1
41
1
41
1
41
1
41
1
41
1
41
1
41
1
41
1
10
-218.50000000000009
20
100.00455183237655
30
0
10
-217.07091371070754
20
100.01375385511103
30
0
10
-211.08636370541777
20
100.10705484991264
30
0
10
-201.32471226480291
20
100.85114553303173
30
0
10
-190.17012302911823
20
105.18346648322523
30
0
10
-181.55771449251915
20
119.50263385178857
30
0
10
-177.42831488249624
20
146.3363816278387
30
0
10
-175.61855122302293
20
172.03921168311172
30
0
10
-173.37521487353288
20
191.32921618330738
30
0
10
-171.23290246104446
20
203.83548769477753
30
0
10
-170
20
210
30
0
0
LINE
5
105
100
AcDbEntity
8
0
100
AcDbLine
10
-218.50000000000009
20
100.00455183237655
30
0
11
-218.5
21
80
31
0
0
LINE
5
106
100
AcDbEntity
8
0
100
AcDbLine
10
-218.5
20
80
30
0
11
-221.5
21
80
31
0
0
LINE
5
107
100
AcDbEntity
8
0
100
AcDbLine
10
-221.5
20
80
30
0
11
-221.5
21
100
31
0
0
LINE
5
108
100
AcDbEntity
8
0
100
AcDbLine
10
-221.5
20
100
30
0
11
-233.07352272739894
21
100.00000000000001
31
0
0
SPLINE
5
109
100
AcDbEntity
8
0
100
AcDbSpline
70
4
71
5
72
16
73
10
74
0
42
0.000000001
43
0.0000000001
44
0.0000000001
40
-0.40939928462461989
40
-0.40939928462461989
40
-0.40939928462461989
40
-0.40939928462461989
40
-0.40939928462461989
40
-0.40939928462461989
40
-0.40000000000000002
40
-0.30000000000000004
40
-0.20000000000000001
40
-0.10000000000000001
40
0
40
0
40
0
40
0
40
0
40
0
41
1
41
1
41
1
41
1
41
1
41
1
41
1
41
1
41
1
41
1
10
-233.07352272739894
20
100.00000000000001
30
0
10
-233.54487707813246
20
99.990549598650489
30
0
10
-239.03757498489563
20
99.862004778760195
30
0
10
-249.67635294756715
20
99.172148184945684
30
0
10
-265.07860163438363
20
95.955182762971219
30
0
10
-282.96084612630443
20
87.124476426422049
30
0
10
-294.54193472798175
20
75.3016385955315
30
0
10
-299.00795493663998
20
67.069750954930001
30
0
10
-300
20
62.245229891281689
30
0
10
-300
20
60
30
0
0
LINE
5
110
100
AcDbEntity
8
0
100
AcDbLine
10
-300.00000000000006
20
60.000000000000007
30
0
11
-301
21
60
31
0
0
LINE
5
111
100
AcDbEntity
8
0
100
AcDbLine
10
-301
20
60
30
0
11
-301
21
40
31
0
0
LINE
5
112
100
AcDbEntity
8
0
100
AcDbLine
10
-301
20
40
30
0
11
-296
21
40
31
0
0
LINE
5
113
100
AcDbEntity
8
0
100
AcDbLine
10
-296
20
40
30
0
11
-296
21
20
31
0
0
LINE
5
114
100
AcDbEntity
8
0
100
AcDbLine
10
-296
20
20
30
0
11
-301
21
20
31
0
0
LINE
5
115
100
AcDbEntity
8
0
100
AcDbLine
10
-301
20
20
30
0
11
-301
21
0
31
0
0
LINE
5
116
100
AcDbEntity
8
0
100
AcDbLine
10
-301
20
0
30
0
11
-274
21
0
31
0
0
LINE
5
117
100
AcDbEntity
8
0
100
AcDbLine
10
-274
20
0
30
0
11
-274
21
-4
31
0
0
LINE
5
118
100
AcDbEntity
8
0
100
AcDbLine
10
-274
20
-4
30
0
11
-243.5
21
-4
31
0
0
LINE
5
119
100
AcDbEntity
8
0
100
AcDbLine
10
-243.5
20
-4
30
0
11
-243.5
21
0
31
0
0
LINE
5
120
100
AcDbEntity
8
0
100
AcDbLine
10
-243.5
20
0
30
0
11
-200
21
0
31
0
0
LINE
5
121
100
AcDbEntity
8
0
100
AcDbLine
10
-200
20
0
30
0
11
-200
21
-4
31
0
0
LINE
5
122
100
AcDbEntity
8
0
100
AcDbLine
10
-200
20
-4
30
0
11
-170
21
-4
31
0
0
LINE
5
123
100
AcDbEntity
8
0
100
AcDbLine
10
-170
20
-4
30
0
11
-170
21
0
31
0
0
LINE
5
124
100
AcDbEntity
8
0
100
AcDbLine
10
-170
20
0
30
0
11
-130
21
0
31
0
0
LINE
5
125
100
AcDbEntity
8
0
100
AcDbLine
10
-130
20
0
30
0
11
-130
21
-4
31
0
0
LINE
5
126
100
AcDbEntity
8
0
100
AcDbLine
10
-130
20
-4
30
0
11
-100
21
-4
31
0
0
LINE
5
127
100
AcDbEntity
8
0
100
AcDbLine
10
-100
20
-4
30
0
11
-100
21
0
31
0
0
LINE
5
128
100
AcDbEntity
8
0
100
AcDbLine
10
-100
20
0
30
0
11
-56.499999999999986
21
0
31
0
0
LINE
5
129
100
AcDbEntity
8
0
100
AcDbLine
10
-56.499999999999986
20
0
30
0
11
-56.499999999999986
21
-4
31
0
0
LINE
5
130
100
AcDbEntity
8
0
100
AcDbLine
10
-56.499999999999986
20
-4
30
0
11
-26.000000000000014
21
-4
31
0
0
LINE
5
131
100
AcDbEntity
8
0
100
AcDbLine
10
-26.000000000000014
20
-4
30
0
11
-26.000000000000014
21
0
31
0
0
LINE
5
132
100
AcDbEntity
8
0
100
AcDbLine
10
-26.000000000000014
20
0
30
0
11
1.0000000000000009
21
0
31
0
0
LINE
5
133
100
AcDbEntity
8
0
100
AcDbLine
10
1.0000000000000009
20
0
30
0
11
1
21
20
31
0
0
LINE
5
134
100
AcDbEntity
8
0
100
AcDbLine
10
1
20
20
30
0
11
-4
21
20
31
0
0
LINE
5
135
100
AcDbEntity
8
0
100
AcDbLine
10
-4
20
20
30
0
11
-4
21
40
31
0
0
LINE
5
136
100
AcDbEntity
8
0
100
AcDbLine
10
-4
20
40
30
0
11
0.99999999999999978
21
40
31
0
0
LINE
5
137
100
AcDbEntity
8
0
100
AcDbLine
10
0.99999999999999978
20
40
30
0
11
1
21
60
31
0
0
LINE
5
138
100
AcDbEntity
8
0
100
AcDbLine
10
1
20
60
30
0
11
0
21
60
31
0
0
SPLINE
5
139
100
AcDbEntity
8
0
100
AcDbSpline
70
4
71
5
72
16
73
10
74
0
42
0.000000001
43
0.0000000001
44
0.0000000001
40
0
40
0
40
0
40
0
40
0
40
0
40
0.10000000000000001
40
0.20000000000000001
40
0.30000000000000004
40
0.40000000000000002
40
0.40939928462461989
40
0.40939928462461989
40
0.40939928462461989
40
0.40939928462461989
40
0.40939928462461989
40
0.40939928462461989
41
1
41
1
41
1
41
1
41
1
41
1
41
1
41
1
41
1
41
1
10
0
20
60
30
0
10
0
20
62.245229891281689
30
0
10
-0.99204506336004528
20
67.069750954930001
30
0
10
-5.4580652720182599
20
75.3016385955315
30
0
10
-17.039153873695589
20
87.124476426422049
30
0
10
-34.921398365616341
20
95.955182762971219
30
0
10
-50.323647052432889
20
99.172148184945684
30
0
10
-60.962425015104401
20
99.862004778760195
30
0
10
-66.455122921867527
20
99.990549598650489
30
0
10
-66.926477272601019
20
100.00000000000001
30
0
0
LINE
5
140
100
AcDbEntity
8
0
100
AcDbLine
10
-66.926477272601019
20
100.00000000000001
30
0
11
-78.500000000000014
21
100
31
0
0
LINE
5
141
100
AcDbEntity
8
0
100
AcDbLine
10
-78.500000000000014
20
100
30
0
11
-78.500000000000014
21
80
31
0
0
LINE
5
142
100
AcDbEntity
8
0
100
AcDbLine
10
-78.500000000000014
20
80
30
0
11
-81.499999999999986
21
80
31
0
0
LWPOLYLINE
5
143
100
AcDbEntity
8
0
100
AcDbPolyline
90
4
70
1
43
0.0
10
-151.5
20
117.90172141165644
10
-148.5
20
117.90172141165644
10
-148.5
20
137.77068048500988
10
-151.5
20
137.77068048500988
0
LWPOLYLINE
5
144
100
AcDbEntity
8
0
100
AcDbPolyline
90
4
70
1
43
0.0
10
-151.5
20
43.834370028563242
10
-148.5
20
43.834370028563242
10
-148.5
20
73.834370028563242
10
-151.5
20
73.834370028563242
0
LWPOLYLINE
5
145
100
AcDbEntity
8
0
100
AcDbPolyline
90
4
70
1
43
0.0
10
-218.5
20
40.048588097773354
10
-221.5
20
40.048588097773354
10
-221.5
20
20
10
-218.5
20
20
0
LWPOLYLINE
5
146
100
AcDbEntity
8
0
100
AcDbPolyline
90
4
70
1
43
0.0
10
-144.25
20
192.59999999999997
10
-144.25
20
207.40000000000003
10
-155.75
20
207.40000000000003
10
-155.75
20
192.59999999999997
0
LWPOLYLINE
5
147
100
AcDbEntity
8
0
100
AcDbPolyline
90
4
70
1
43
0.0
10
-81.499999999999986
20
40.048588097773354
10
-81.499999999999986
20
20
10
-78.500000000000014
20
20
10
-78.500000000000014
20
40.048588097773354
0
ENDSEC
0
SECTION
2
OBJECTS
0
DICTIONARY
5
C
100
AcDbDictionary
3
ACAD_GROUP
350
D
3
ACAD_MLINESTYLE
350
17
0
DICTIONARY
5
D
100
AcDbDictionary
0
DICTIONARY
5
1A
330
C
100
AcDbDictionary
0
DICTIONARY
5
17
100
AcDbDictionary
0
ENDSEC
0
EOF
