0
SECTION
2
HEADER
9
$INSUNITS
70
4
9
$ACADVER
1
AC1014
9
$HANDSEED
5
FFFF
0
ENDSEC
0
SECTION
2
TABLES
0
TABLE
2
VPORT
5
8
100
AcDbSymbolTable
0
ENDTAB
0
TABLE
2
LTYPE
5
5
100
AcDbSymbolTable
0
LTYPE
5
14
100
AcDbSymbolTableRecord
100
AcDbLinetypeTableRecord
2
BYBLOCK
70
0
0
LTYPE
5
15
100
AcDbSymbolTableRecord
100
AcDbLinetypeTableRecord
2
BYLAYER
70
0
0
ENDTAB
0
TABLE
2
LAYER
5
2
100
AcDbSymbolTable
70
2
0
LAYER
5
50
100
AcDbSymbolTableRecord
100
AcDbLayerTableRecord
2
0
70
0
6
CONTINUOUS
0
ENDTAB
0
TABLE
2
STYLE
5
3
100
AcDbSymbolTable
70
1
0
STYLE
5
11
100
AcDbSymbolTableRecord
100
AcDbTextStyleTableRecord
2
STANDARD
70
0
0
ENDTAB
0
TABLE
2
VIEW
5
6
100
AcDbSymbolTable
70
0
0
ENDTAB
0
TABLE
2
UCS
5
7
100
AcDbSymbolTable
70
0
0
ENDTAB
0
TABLE
2
APPID
5
9
100
AcDbSymbolTable
70
2
0
APPID
5
12
100
AcDbSymbolTableRecord
100
AcDbRegAppTableRecord
2
ACAD
70
0
0
ENDTAB
0
TABLE
2
DIMSTYLE
5
A
100
AcDbSymbolTable
70
1
0
ENDTAB
0
TABLE
2
BLOCK_RECORD
5
1
100
AcDbSymbolTable
70
1
0
BLOCK_RECORD
5
1F
100
AcDbSymbolTableRecord
100
AcDbBlockTableRecord
2
*MODEL_SPACE
0
BLOCK_RECORD
5
1B
100
AcDbSymbolTableRecord
100
AcDbBlockTableRecord
2
*PAPER_SPACE
0
ENDTAB
0
ENDSEC
0
SECTION
2
BLOCKS
0
BLOCK
5
20
100
AcDbEntity
100
AcDbBlockBegin
2
*MODEL_SPACE
0
ENDBLK
5
21
100
AcDbEntity
100
AcDbBlockEnd
0
BLOCK
5
1C
100
AcDbEntity
100
AcDbBlockBegin
2
*PAPER_SPACE
0
ENDBLK
5
1D
100
AcDbEntity
100
AcDbBlockEnd
0
ENDSEC
0
SECTION
2
ENTITIES
0
LINE
5
100
100
AcDbEntity
8
0
100
AcDbLine
10
-174.66911169616645
20
36.856459420837375
30
0
11
-177
21
2.9999999999999982
31
0
0
LINE
5
101
100
AcDbEntity
8
0
100
AcDbLine
10
-177
20
2.9999999999999982
30
0
11
-174
21
3.0000000000000004
31
0
0
LINE
5
102
100
AcDbEntity
8
0
100
AcDbLine
10
-174
20
3.0000000000000004
30
0
11
-174
21
-7.811255707796958
31
0
0
LINE
5
103
100
AcDbEntity
8
0
100
AcDbLine
10
-174
20
-7.811255707796958
30
0
11
-177
21
-7.811255707796958
31
0
0
LINE
5
104
100
AcDbEntity
8
0
100
AcDbLine
10
-177
20
-7.811255707796958
30
0
11
-177
21
-14.811255707796956
31
0
0
LINE
5
105
100
AcDbEntity
8
0
100
AcDbLine
10
-177
20
-14.811255707796956
30
0
11
-174
21
-14.811255707796956
31
0
0
LINE
5
106
100
AcDbEntity
8
0
100
AcDbLine
10
-174
20
-14.811255707796956
30
0
11
-174
21
-29.811255707796956
31
0
0
LINE
5
107
100
AcDbEntity
8
0
100
AcDbLine
10
-174
20
-29.811255707796956
30
0
11
-177
21
-29.811255707796956
31
0
0
LINE
5
108
100
AcDbEntity
8
0
100
AcDbLine
10
-177
20
-29.811255707796956
30
0
11
-177
21
-37.62251141559392
31
0
0
LINE
5
109
100
AcDbEntity
8
0
100
AcDbLine
10
-177
20
-37.62251141559392
30
0
11
-159.34884791772515
21
-33.870643219465698
31
0
0
SPLINE
5
110
100
AcDbEntity
8
0
100
AcDbSpline
70
4
71
5
72
16
73
10
74
0
42
0.000000001
43
0.0000000001
44
0.0000000001
40
-1
40
-1
40
-1
40
-1
40
-1
40
-1
40
-0.80000000000000004
40
-0.60000000000000009
40
-0.40000000000000002
40
-0.20000000000000001
40
0
40
0
40
0
40
0
40
0
40
0
41
1
41
1
41
1
41
1
41
1
41
1
41
1
41
1
41
1
41
1
10
-13.174409557779946
20
-2.8003071976307958
30
0
10
-18.436772154528288
20
-2.2242524610439891
30
0
10
-29.253248022713514
20
-1.3439567142555575
30
0
10
-46.352311214826578
20
-0.83846722368360349
30
0
10
-70.558765492283129
20
-1.7829021500507203
30
0
10
-101.67254056707337
20
-6.2688208193805215
30
0
10
-125.94517047710666
20
-13.700278501806755
30
0
10
-143.13802817944472
20
-22.389217512047544
30
0
10
-154.03885219283234
20
-29.777348012894763
30
0
10
-159.34884791772515
20
-33.870643219465698
30
0
0
LINE
5
111
100
AcDbEntity
8
0
100
AcDbLine
10
-13.174409557779946
20
-2.8003071976307958
30
0
11
0
21
0
31
0
0
LINE
5
112
100
AcDbEntity
8
0
100
AcDbLine
10
0
20
0
30
0
11
0
21
8
31
0
0
LINE
5
113
100
AcDbEntity
8
0
100
AcDbLine
10
0
20
8
30
0
11
3.0000000000000004
21
8
31
0
0
LINE
5
114
100
AcDbEntity
8
0
100
AcDbLine
10
3.0000000000000004
20
8
30
0
11
3.0000000000000004
21
18.000000000000004
31
0
0
LINE
5
115
100
AcDbEntity
8
0
100
AcDbLine
10
3.0000000000000004
20
18.000000000000004
30
0
11
0
21
18.000000000000004
31
0
0
LINE
5
116
100
AcDbEntity
8
0
100
AcDbLine
10
0
20
18.000000000000004
30
0
11
0
21
26.099999999999998
31
0
0
LINE
5
117
100
AcDbEntity
8
0
100
AcDbLine
10
0
20
26.099999999999998
30
0
11
-174.66911169616645
21
36.856459420837375
31
0
0
LWPOLYLINE
5
118
100
AcDbEntity
8
0
100
AcDbPolyline
90
4
70
1
43
0.0
10
-148.3509457145764
20
2.2204460492503131e-15
10
-121.11298285173758
20
2.2204460492503131e-15
10
-121.11298285173758
20
3.0000000000000027
10
-148.3509457145764
20
3.0000000000000027
0
LWPOLYLINE
5
119
100
AcDbEntity
8
0
100
AcDbPolyline
90
4
70
1
43
0.0
10
-100
20
2.2204460492503131e-15
10
-74
20
2.2204460492503131e-15
10
-74
20
3.0000000000000027
10
-100
20
3.0000000000000027
0
ENDSEC
0
SECTION
2
OBJECTS
0
DICTIONARY
5
C
100
AcDbDictionary
3
ACAD_GROUP
350
D
3
ACAD_MLINESTYLE
350
17
0
DICTIONARY
5
D
100
AcDbDictionary
0
DICTIONARY
5
1A
330
C
100
AcDbDictionary
0
DICTIONARY
5
17
100
AcDbDictionary
0
ENDSEC
0
EOF
