0
SECTION
2
HEADER
9
$INSUNITS
70
4
9
$ACADVER
1
AC1014
9
$HANDSEED
5
FFFF
0
ENDSEC
0
SECTION
2
TABLES
0
TABLE
2
VPORT
5
8
100
AcDbSymbolTable
0
ENDTAB
0
TABLE
2
LTYPE
5
5
100
AcDbSymbolTable
0
LTYPE
5
14
100
AcDbSymbolTableRecord
100
AcDbLinetypeTableRecord
2
BYBLOCK
70
0
0
LTYPE
5
15
100
AcDbSymbolTableRecord
100
AcDbLinetypeTableRecord
2
BYLAYER
70
0
0
ENDTAB
0
TABLE
2
LAYER
5
2
100
AcDbSymbolTable
70
2
0
LAYER
5
50
100
AcDbSymbolTableRecord
100
AcDbLayerTableRecord
2
0
70
0
6
CONTINUOUS
0
ENDTAB
0
TABLE
2
STYLE
5
3
100
AcDbSymbolTable
70
1
0
STYLE
5
11
100
AcDbSymbolTableRecord
100
AcDbTextStyleTableRecord
2
STANDARD
70
0
0
ENDTAB
0
TABLE
2
VIEW
5
6
100
AcDbSymbolTable
70
0
0
ENDTAB
0
TABLE
2
UCS
5
7
100
AcDbSymbolTable
70
0
0
ENDTAB
0
TABLE
2
APPID
5
9
100
AcDbSymbolTable
70
2
0
APPID
5
12
100
AcDbSymbolTableRecord
100
AcDbRegAppTableRecord
2
ACAD
70
0
0
ENDTAB
0
TABLE
2
DIMSTYLE
5
A
100
AcDbSymbolTable
70
1
0
ENDTAB
0
TABLE
2
BLOCK_RECORD
5
1
100
AcDbSymbolTable
70
1
0
BLOCK_RECORD
5
1F
100
AcDbSymbolTableRecord
100
AcDbBlockTableRecord
2
*MODEL_SPACE
0
BLOCK_RECORD
5
1B
100
AcDbSymbolTableRecord
100
AcDbBlockTableRecord
2
*PAPER_SPACE
0
ENDTAB
0
ENDSEC
0
SECTION
2
BLOCKS
0
BLOCK
5
20
100
AcDbEntity
100
AcDbBlockBegin
2
*MODEL_SPACE
0
ENDBLK
5
21
100
AcDbEntity
100
AcDbBlockEnd
0
BLOCK
5
1C
100
AcDbEntity
100
AcDbBlockBegin
2
*PAPER_SPACE
0
ENDBLK
5
1D
100
AcDbEntity
100
AcDbBlockEnd
0
ENDSEC
0
SECTION
2
ENTITIES
0
LINE
5
100
100
AcDbEntity
8
0
100
AcDbLine
10
-174.66911169616645
20
36.856459420837375
30
0
11
-177
21
2.9999999999999982
31
0
0
LINE
5
101
100
AcDbEntity
8
0
100
AcDbLine
10
-177
20
2.9999999999999982
30
0
11
-174
21
3.0000000000000004
31
0
0
LINE
5
102
100
AcDbEntity
8
0
100
AcDbLine
10
-174
20
3.0000000000000004
30
0
11
-174
21
-7.811255707796958
31
0
0
LINE
5
103
100
AcDbEntity
8
0
100
AcDbLine
10
-174
20
-7.811255707796958
30
0
11
-177
21
-7.811255707796958
31
0
0
LINE
5
104
100
AcDbEntity
8
0
100
AcDbLine
10
-177
20
-7.811255707796958
30
0
11
-177
21
-14.81125570779696
31
0
0
LINE
5
105
100
AcDbEntity
8
0
100
AcDbLine
10
-177
20
-14.81125570779696
30
0
11
-174
21
-14.81125570779696
31
0
0
LINE
5
106
100
AcDbEntity
8
0
100
AcDbLine
10
-174
20
-14.81125570779696
30
0
11
-174
21
-29.81125570779696
31
0
0
LINE
5
107
100
AcDbEntity
8
0
100
AcDbLine
10
-174
20
-29.81125570779696
30
0
11
-177
21
-29.81125570779696
31
0
0
LINE
5
108
100
AcDbEntity
8
0
100
AcDbLine
10
-177
20
-29.81125570779696
30
0
11
-177
21
-37.62251141559392
31
0
0
LINE
5
109
100
AcDbEntity
8
0
100
AcDbLine
10
-177
20
-37.62251141559392
30
0
11
-159.34884791772515
21
-33.870643219465698
31
0
0
SPLINE
5
110
100
AcDbEntity
8
0
100
AcDbSpline
70
4
71
5
72
16
73
10
74
0
42
0.000000001
43
0.0000000001
44
0.0000000001
40
0
40
0
40
0
40
0
40
0
40
0
40
0.20000000000000001
40
0.40000000000000002
40
0.60000000000000009
40
0.80000000000000004
40
1
40
1
40
1
40
1
40
1
40
1
41
1
41
1
41
1
41
1
41
1
41
1
41
1
41
1
41
1
41
1
10
-159.34884791772515
20
-33.870643219465698
30
0
10
-154.03885219283234
20
-29.777348012894763
30
0
10
-143.13802817944472
20
-22.389217512047544
30
0
10
-125.94517047710666
20
-13.700278501806755
30
0
10
-101.67254056707337
20
-6.2688208193805215
30
0
10
-70.558765492283129
20
-1.7829021500507203
30
0
10
-46.352311214826578
20
-0.83846722368360349
30
0
10
-29.253248022713514
20
-1.3439567142555575
30
0
10
-18.436772154528288
20
-2.2242524610439891
30
0
10
-13.174409557779946
20
-2.8003071976307958
30
0
0
LINE
5
111
100
AcDbEntity
8
0
100
AcDbLine
10
-13.174409557779946
20
-2.8003071976307958
30
0
11
0
21
0
31
0
0
LINE
5
112
100
AcDbEntity
8
0
100
AcDbLine
10
0
20
0
30
0
11
0
21
8
31
0
0
LINE
5
113
100
AcDbEntity
8
0
100
AcDbLine
10
0
20
8
30
0
11
3.0000000000000004
21
8
31
0
0
LINE
5
114
100
AcDbEntity
8
0
100
AcDbLine
10
3.0000000000000004
20
8
30
0
11
3.0000000000000004
21
18.000000000000004
31
0
0
LINE
5
115
100
AcDbEntity
8
0
100
AcDbLine
10
3.0000000000000004
20
18.000000000000004
30
0
11
0
21
18.000000000000004
31
0
0
LINE
5
116
100
AcDbEntity
8
0
100
AcDbLine
10
0
20
18.000000000000004
30
0
11
0
21
26.099999999999998
31
0
0
LINE
5
117
100
AcDbEntity
8
0
100
AcDbLine
10
0
20
26.099999999999998
30
0
11
-174.66911169616645
21
36.856459420837375
31
0
0
LWPOLYLINE
5
118
100
AcDbEntity
8
0
100
AcDbPolyline
90
4
70
1
43
0.0
10
-74
20
2.2204460492503131e-15
10
-74
20
3.0000000000000027
10
-100
20
3.0000000000000027
10
-100
20
2.2204460492503131e-15
0
LWPOLYLINE
5
119
100
AcDbEntity
8
0
100
AcDbPolyline
90
4
70
1
43
0.0
10
-121.11298285173758
20
2.2204460492503131e-15
10
-121.11298285173758
20
3.0000000000000027
10
-148.3509457145764
20
3.0000000000000027
10
-148.3509457145764
20
2.2204460492503131e-15
0
SPLINE
5
120
100
AcDbEntity
8
0
100
AcDbSpline
70
4
71
3
72
8
73
4
74
0
42
0.000000001
43
0.0000000001
44
0.0000000001
40
0
40
0
40
0
40
0
40
1
40
1
40
1
40
1
41
1
41
1
41
1
41
1
10
-99.465252716415748
20
25.069045534032757
30
0
10
-100.13473544130562
20
24.881835210795558
30
0
10
-101.05324504313063
20
23.909231615608011
30
0
10
-100.44042190062967
20
23.184695583843844
30
0
0
SPLINE
5
121
100
AcDbEntity
8
0
100
AcDbSpline
70
4
71
3
72
8
73
4
74
0
42
0.000000001
43
0.0000000001
44
0.0000000001
40
0
40
0
40
0
40
0
40
1
40
1
40
1
40
1
41
1
41
1
41
1
41
1
10
-100.44042190062967
20
23.184695583843844
30
0
10
-100.25513752668917
20
22.944366598169594
30
0
10
-99.674513734432708
20
22.622261600467652
30
0
10
-98.064618069459243
20
22.293392815591115
30
0
0
LINE
5
122
100
AcDbEntity
8
0
100
AcDbLine
10
-98.064618069459243
20
22.293392815591115
30
0
11
-94.312337247810262
21
21.459561586717925
31
0
0
SPLINE
5
123
100
AcDbEntity
8
0
100
AcDbSpline
70
4
71
3
72
8
73
4
74
0
42
0.000000001
43
0.0000000001
44
0.0000000001
40
0
40
0
40
0
40
0
40
1
40
1
40
1
40
1
41
1
41
1
41
1
41
1
10
-94.312337247810248
20
21.459561586717939
30
0
10
-90.221687028524798
20
20.547503420558524
30
0
10
-88.223042042281577
20
18.649955345644997
30
0
10
-88.410728090962635
20
15.629776524082892
30
0
0
SPLINE
5
124
100
AcDbEntity
8
0
100
AcDbSpline
70
4
71
3
72
8
73
4
74
0
42
0.000000001
43
0.0000000001
44
0.0000000001
40
0
40
0
40
0
40
0
40
1
40
1
40
1
40
1
41
1
41
1
41
1
41
1
10
-88.410728090962635
20
15.629776524082892
30
0
10
-88.651532802080752
20
11.754830603690412
30
0
10
-91.977234168681079
20
9.7877287701973614
30
0
10
-97.305277200972725
20
10.11883477517765
30
0
0
SPLINE
5
125
100
AcDbEntity
8
0
100
AcDbSpline
70
4
71
3
72
8
73
4
74
0
42
0.000000001
43
0.0000000001
44
0.0000000001
40
0
40
0
40
0
40
0
40
1
40
1
40
1
40
1
41
1
41
1
41
1
41
1
10
-97.305277200972725
20
10.11883477517765
30
0
10
-101.35117828015942
20
10.370263326853362
30
0
10
-105.5987735765239
20
11.978536158547577
30
0
10
-106.5672047668194
20
16.186047543264728
30
0
0
LINE
5
126
100
AcDbEntity
8
0
100
AcDbLine
10
-106.5672047668194
20
16.186047543264728
30
0
11
-101.66653658880236
21
15.881500329151981
31
0
0
SPLINE
5
127
100
AcDbEntity
8
0
100
AcDbSpline
70
4
71
3
72
8
73
4
74
0
42
0.000000001
43
0.0000000001
44
0.0000000001
40
0
40
0
40
0
40
0
40
1
40
1
40
1
40
1
41
1
41
1
41
1
41
1
10
-101.66653658880236
20
15.881500329151983
30
0
10
-100.77925100629639
20
14.510654662558853
30
0
10
-99.340146045480267
20
13.734770158158067
30
0
10
-97.748120515604967
20
13.578627262227148
30
0
0
SPLINE
5
128
100
AcDbEntity
8
0
100
AcDbSpline
70
4
71
3
72
8
73
4
74
0
42
0.000000001
43
0.0000000001
44
0.0000000001
40
0
40
0
40
0
40
0
40
1
40
1
40
1
40
1
41
1
41
1
41
1
41
1
10
-97.748120515604967
20
13.578627262227148
30
0
10
-95.588020442976557
20
13.358586644156318
30
0
10
-93.337299943054845
20
13.676347167890821
30
0
10
-93.533855119555767
20
15.576313475309522
30
0
0
SPLINE
5
129
100
AcDbEntity
8
0
100
AcDbSpline
70
4
71
3
72
8
73
4
74
0
42
0.000000001
43
0.0000000001
44
0.0000000001
40
0
40
0
40
0
40
0
40
1
40
1
40
1
40
1
41
1
41
1
41
1
41
1
10
-93.533855119555767
20
15.576313475309522
30
0
10
-93.644609235658152
20
16.55567162218011
30
0
10
-94.531566989592449
20
17.01122077832844
30
0
10
-95.690897319949244
20
17.226277574867641
30
0
0
LINE
5
130
100
AcDbEntity
8
0
100
AcDbLine
10
-95.690897319949244
20
17.226277574867641
30
0
11
-99.503707553212678
21
18.006662312732104
31
0
0
SPLINE
5
131
100
AcDbEntity
8
0
100
AcDbSpline
70
4
71
3
72
8
73
4
74
0
42
0.000000001
43
0.0000000001
44
0.0000000001
40
0
40
0
40
0
40
0
40
1
40
1
40
1
40
1
41
1
41
1
41
1
41
1
10
-99.503707553212664
20
18.0066623127321
30
0
10
-103.48570221511885
20
18.826164866809965
30
0
10
-105.67671395555732
20
20.850074719915117
30
0
10
-105.49434009733051
20
23.784771614509843
30
0
0
SPLINE
5
132
100
AcDbEntity
8
0
100
AcDbSpline
70
4
71
3
72
8
73
4
74
0
42
0.000000001
43
0.0000000001
44
0.0000000001
40
0
40
0
40
0
40
0
40
1
40
1
40
1
40
1
41
1
41
1
41
1
41
1
10
-105.49434009733051
20
23.784771614509843
30
0
10
-105.26592995692144
20
27.460268400452339
30
0
10
-102.18056627113594
20
29.242086400355873
30
0
10
-97.051963678153683
20
28.923374425733641
30
0
0
SPLINE
5
133
100
AcDbEntity
8
0
100
AcDbSpline
70
4
71
3
72
8
73
4
74
0
42
0.000000001
43
0.0000000001
44
0.0000000001
40
0
40
0
40
0
40
0
40
1
40
1
40
1
40
1
41
1
41
1
41
1
41
1
10
-97.051963678153683
20
28.923374425733641
30
0
10
-92.550193769036596
20
28.643616353038954
30
0
10
-89.340869979800033
20
27.357293299901393
30
0
10
-88.196171980606991
20
23.224631306453443
30
0
0
LINE
5
134
100
AcDbEntity
8
0
100
AcDbLine
10
-88.196171980606991
20
23.224631306453443
30
0
11
-93.153819414795066
21
23.532719440518072
31
0
0
LINE
5
135
100
AcDbEntity
8
0
100
AcDbLine
10
-93.153819414795066
20
23.532719440518072
30
0
11
-93.34264470868743
21
23.716069170021292
31
0
0
SPLINE
5
136
100
AcDbEntity
8
0
100
AcDbSpline
70
4
71
3
72
8
73
4
74
0
42
0.000000001
43
0.0000000001
44
0.0000000001
40
0
40
0
40
0
40
0
40
1
40
1
40
1
40
1
41
1
41
1
41
1
41
1
10
-93.342644708687445
20
23.716069170021292
30
0
10
-94.11934062972783
20
24.565196249825707
30
0
10
-95.284146524473798
20
25.152428069760511
30
0
10
-96.591250228423249
20
25.290856049738508
30
0
0
SPLINE
5
137
100
AcDbEntity
8
0
100
AcDbSpline
70
4
71
3
72
8
73
4
74
0
42
0.000000001
43
0.0000000001
44
0.0000000001
40
0
40
0
40
0
40
0
40
1
40
1
40
1
40
1
41
1
41
1
41
1
41
1
10
-96.591250228423249
20
25.290856049738508
30
0
10
-97.556441993731426
20
25.408062434023027
30
0
10
-98.674719863437531
20
25.363149379638372
30
0
10
-99.465252716415748
20
25.069045534032757
30
0
0
LWPOLYLINE
5
138
100
AcDbEntity
8
0
100
AcDbPolyline
90
12
70
1
43
0.0
10
-16.68582082573165
20
23.299870358877584
10
-17.769441539447239
20
5.8626215427379158
10
-3.6372921721183484
20
4.9843929904455413
10
-3.3716988599331712
20
9.258228484597419
10
-13.144536023227136
20
9.8655518584608988
10
-12.995803768403423
20
12.258899735185961
10
-5.7017911917175663
20
11.8056204823899
10
-5.4397391236948476
20
16.022471503286418
10
-12.733751700380722
20
16.475750756082476
10
-12.590331311800719
20
18.783621922924482
10
-2.9884475682728064
20
18.186922281548409
10
-2.7246248781688553
20
22.432265539072613
0
LWPOLYLINE
5
139
100
AcDbEntity
8
0
100
AcDbPolyline
90
12
70
1
43
0.0
10
-37.029277777894563
20
24.564094524879103
10
-38.112898491610153
20
7.126845708739431
10
-33.753586287575253
20
6.8559405303105336
10
-33.047108077162633
20
18.224342944754543
10
-32.990123603907271
20
18.220801700592059
10
-25.661791085314377
20
6.3530838592399057
10
-21.21700217139642
20
6.0768668145672962
10
-20.13338145768083
20
23.514115630706961
10
-24.464201425088035
20
23.783250187054623
10
-25.121102217226088
20
13.212630398185638
10
-25.206578927109163
20
13.217942264429341
10
-32.242582024444474
20
24.266630015231673
0
LWPOLYLINE
5
140
100
AcDbEntity
8
0
100
AcDbPolyline
90
4
70
1
43
0.0
10
-40.704776302865199
20
24.79250477335836
10
-45.263534163293869
20
25.075804306355902
10
-46.347154877009459
20
7.6385554902162491
10
-41.788397016580788
20
7.3552559572187022
0
LWPOLYLINE
5
141
100
AcDbEntity
8
0
100
AcDbPolyline
90
12
70
1
43
0.0
10
-53.664701379787026
20
19.219580343210364
10
-53.269852655671706
20
25.573349111182822
10
-48.910540451636791
20
25.302443932753931
10
-49.994161165352381
20
7.8651951166142675
10
-54.381965606014973
20
8.1378709171243955
10
-53.976493149412264
20
14.662593104862932
10
-62.153765061556179
20
15.170761642177272
10
-62.559237518158895
20
8.646039454438732
10
-66.918549722193816
20
8.9169446328676223
10
-65.834929008478241
20
26.35419344900729
10
-61.475616804443305
20
26.083288270578397
10
-61.870465528558618
20
19.729519502605939
0
LINE
5
142
100
AcDbEntity
8
0
100
AcDbLine
10
-73.084162041195867
20
16.021632310179523
30
0
11
-73.157085483168373
21
15.768745379861384
31
0
0
SPLINE
5
143
100
AcDbEntity
8
0
100
AcDbSpline
70
4
71
3
72
8
73
4
74
0
42
0.000000001
43
0.0000000001
44
0.0000000001
40
0
40
0
40
0
40
0
40
1
40
1
40
1
40
1
41
1
41
1
41
1
41
1
10
-73.157085483168373
20
15.768745379861393
30
0
10
-73.562574389465567
20
14.306622548129617
30
0
10
-75.250213403657327
20
12.924186405193989
30
0
10
-78.070943090769447
20
13.099477883166006
30
0
0
SPLINE
5
144
100
AcDbEntity
8
0
100
AcDbSpline
70
4
71
3
72
8
73
4
74
0
42
0.000000001
43
0.0000000001
44
0.0000000001
40
0
40
0
40
0
40
0
40
1
40
1
40
1
40
1
41
1
41
1
41
1
41
1
10
-78.070943090769447
20
13.099477883166006
30
0
10
-81.603978693573552
20
13.319034913168917
30
0
10
-82.481132718730436
20
16.233771809082906
30
0
10
-82.316465081316011
20
18.883546337400841
30
0
0
SPLINE
5
145
100
AcDbEntity
8
0
100
AcDbSpline
70
4
71
3
72
8
73
4
74
0
42
0.000000001
43
0.0000000001
44
0.0000000001
40
0
40
0
40
0
40
0
40
1
40
1
40
1
40
1
41
1
41
1
41
1
41
1
10
-82.316465081316011
20
18.883546337400841
30
0
10
-82.165962204411059
20
21.305386450753563
30
0
10
-80.439533202577593
20
23.772303532776782
30
0
10
-77.134432014738707
20
23.566911263283377
30
0
0
SPLINE
5
146
100
AcDbEntity
8
0
100
AcDbSpline
70
4
71
3
72
8
73
4
74
0
42
0.000000001
43
0.0000000001
44
0.0000000001
40
0
40
0
40
0
40
0
40
1
40
1
40
1
40
1
41
1
41
1
41
1
41
1
10
-77.134432014738707
20
23.566911263283377
30
0
10
-74.484657486420772
20
23.402243625868948
30
0
10
-73.19122680012326
20
21.662936465258511
30
0
10
-72.975359127295405
20
20.534026059854202
30
0
0
LINE
5
147
100
AcDbEntity
8
0
100
AcDbLine
10
-72.975359127295405
20
20.534026059854206
30
0
11
-72.93430666664473
21
20.274056208930343
31
0
0
LINE
5
148
100
AcDbEntity
8
0
100
AcDbLine
10
-72.93430666664473
20
20.274056208930343
30
0
11
-68.688965148148625
21
20.010233626896582
31
0
0
LINE
5
149
100
AcDbEntity
8
0
100
AcDbLine
10
-68.688965148148625
20
20.010233626896582
30
0
11
-68.694441252888765
21
20.382399955151627
31
0
0
SPLINE
5
150
100
AcDbEntity
8
0
100
AcDbSpline
70
4
71
3
72
8
73
4
74
0
42
0.000000001
43
0.0000000001
44
0.0000000001
40
0
40
0
40
0
40
0
40
1
40
1
40
1
40
1
41
1
41
1
41
1
41
1
10
-68.69444125288878
20
20.382399955151609
30
0
10
-68.80246532532793
20
23.706978093954287
30
0
10
-71.44629671860244
20
27.189141489916651
30
0
10
-77.118020798633907
20
27.513001200356353
30
0
0
SPLINE
5
151
100
AcDbEntity
8
0
100
AcDbSpline
70
4
71
3
72
8
73
4
74
0
42
0.000000001
43
0.0000000001
44
0.0000000001
40
0
40
0
40
0
40
0
40
1
40
1
40
1
40
1
41
1
41
1
41
1
41
1
10
-77.118020798633907
20
27.513001200356353
30
0
10
-83.160149171909566
20
27.859879322062699
30
0
10
-86.597226904060847
20
23.640121263508682
30
0
10
-86.866361136197924
20
19.309306513185778
30
0
0
SPLINE
5
152
100
AcDbEntity
8
0
100
AcDbSpline
70
4
71
3
72
8
73
4
74
0
42
0.000000001
43
0.0000000001
44
0.0000000001
40
0
40
0
40
0
40
0
40
1
40
1
40
1
40
1
41
1
41
1
41
1
41
1
10
-86.866361136197924
20
19.309306513185778
30
0
10
-87.247044883663364
20
13.183475638234761
30
0
10
-83.98877483688176
20
9.4629179010354392
30
0
10
-77.948425888898129
20
9.0875463440242932
30
0
0
SPLINE
5
153
100
AcDbEntity
8
0
100
AcDbSpline
70
4
71
3
72
8
73
4
74
0
42
0.000000001
43
0.0000000001
44
0.0000000001
40
0
40
0
40
0
40
0
40
1
40
1
40
1
40
1
41
1
41
1
41
1
41
1
10
-77.948425888898129
20
9.0875463440242932
30
0
10
-72.534900929639079
20
8.7511281485897108
30
0
10
-69.601499039751914
20
12.229921861159134
30
0
10
-68.724688860580372
20
15.293087787809192
30
0
0
LINE
5
154
100
AcDbEntity
8
0
100
AcDbLine
10
-68.724688860580372
20
15.293087787809192
30
0
11
-68.614427027686475
21
15.686665711465274
31
0
0
LWPOLYLINE
5
155
100
AcDbEntity
8
0
100
AcDbPolyline
90
16
70
1
43
0.0
10
-145.95509840551205
20
31.333182741439074
10
-147.03871911922764
20
13.895933925299406
10
-142.70789915182041
20
13.626799368951739
10
-141.9359079244021
20
26.049414538619878
10
-141.90741568777443
20
26.047643916538625
10
-138.4910481309239
20
13.364747300929011
10
-134.92951855246397
20
13.143419540774692
10
-130.05464525065989
20
25.311065130745028
10
-130.02615301403222
20
25.30929450866379
10
-130.8266364780782
20
12.888449961076901
10
-126.49581651067096
20
12.619315404729232
10
-125.41219579695537
20
30.056564220868893
10
-132.39279377073677
20
30.490366630771394
10
-136.27495373470214
20
20.949643243447078
10
-136.33193820795748
20
20.953184487609541
10
-138.97450043173066
20
30.899380331536584
0
LWPOLYLINE
5
156
100
AcDbEntity
8
0
100
AcDbPolyline
90
8
70
1
43
0.0
10
-124.84326341627954
20
12.516617368849134
10
-120.31299953150666
20
12.235088566003025
10
-118.84332674886588
20
15.633237649131978
10
-112.06217356196417
20
15.211829539763041
10
-111.05302262751094
20
11.659636389601777
10
-106.49426476708227
20
11.37633685660423
10
-111.02361358336502
20
29.162401646768245
10
-118.00421155714642
20
29.596204056670711
0
LWPOLYLINE
5
157
100
AcDbEntity
8
0
100
AcDbPolyline
90
3
70
1
43
0.0
10
-114.78119438527393
20
24.848153601870884
10
-113.27994641505568
20
19.549243352448222
10
-116.98393717665397
20
19.779424223008725
0
SPLINE
5
158
100
AcDbEntity
8
0
100
AcDbSpline
70
4
71
3
72
8
73
4
74
0
42
0.000000001
43
0.0000000001
44
0.0000000001
40
0
40
0
40
0
40
0
40
1
40
1
40
1
40
1
41
1
41
1
41
1
41
1
10
-162.30400601551696
20
31.519707214776336
30
0
10
-157.91620114009737
20
31.247031387248665
30
0
10
-154.54927825007258
20
27.433909477914966
30
0
10
-154.82195394251252
20
23.046106776280499
30
0
0
SPLINE
5
159
100
AcDbEntity
8
0
100
AcDbSpline
70
4
71
3
72
8
73
4
74
0
42
0.000000001
43
0.0000000001
44
0.0000000001
40
0
40
0
40
0
40
0
40
1
40
1
40
1
40
1
41
1
41
1
41
1
41
1
10
-154.82195394251252
20
23.046106776280499
30
0
10
-155.09462963495247
20
18.658304074646015
30
0
10
-158.90774950558875
20
15.291378875748336
30
0
10
-163.29555438100837
20
15.564054703276007
30
0
0
SPLINE
5
160
100
AcDbEntity
8
0
100
AcDbSpline
70
4
71
3
72
8
73
4
74
0
42
0.000000001
43
0.0000000001
44
0.0000000001
40
0
40
0
40
0
40
0
40
1
40
1
40
1
40
1
41
1
41
1
41
1
41
1
10
-163.29555438100837
20
15.564054703276007
30
0
10
-167.68335925642799
20
15.836730530803695
30
0
10
-171.05205287660422
20
19.621358464481595
30
0
10
-170.77760645401284
20
24.037655141771879
30
0
0
SPLINE
5
161
100
AcDbEntity
8
0
100
AcDbSpline
70
4
71
3
72
8
73
4
74
0
42
0.000000001
43
0.0000000001
44
0.0000000001
40
0
40
0
40
0
40
0
40
1
40
1
40
1
40
1
41
1
41
1
41
1
41
1
10
-170.77760645401284
20
24.037655141771879
30
0
10
-170.50493076157292
20
28.425457843406345
30
0
10
-166.69180980404403
20
31.792382974760152
30
0
10
-162.30400601551696
20
31.519707214776336
30
0
0
LINE
5
162
100
AcDbEntity
8
0
100
AcDbLine
10
-158.67097419041173
20
20.482272645180402
30
0
11
-158.32393215441954
21
26.066752763233634
31
0
0
SPLINE
5
163
100
AcDbEntity
8
0
100
AcDbSpline
70
4
71
3
72
8
73
4
74
0
42
0.000000001
43
0.0000000001
44
0.0000000001
40
0
40
0
40
0
40
0
40
1
40
1
40
1
40
1
41
1
41
1
41
1
41
1
10
-158.32393215441957
20
26.066752763233634
30
0
10
-158.27258422213393
20
26.893025886408211
30
0
10
-158.91390351407583
20
27.619332783411572
30
0
10
-159.74017881103555
20
27.670680850784919
30
0
0
LINE
5
164
100
AcDbEntity
8
0
100
AcDbLine
10
-159.74017881103555
20
27.670680850784919
30
0
11
-165.32465566841108
21
28.017722684145486
31
0
0
SPLINE
5
165
100
AcDbEntity
8
0
100
AcDbSpline
70
4
71
3
72
8
73
4
74
0
42
0.000000001
43
0.0000000001
44
0.0000000001
40
0
40
0
40
0
40
0
40
1
40
1
40
1
40
1
41
1
41
1
41
1
41
1
10
-165.32465566841108
20
28.01772268414549
30
0
10
-166.1509309653708
20
28.069070751518854
30
0
10
-166.87723881417898
20
27.427753700905964
30
0
10
-166.92858674646459
20
26.601480577731387
30
0
0
LINE
5
166
100
AcDbEntity
8
0
100
AcDbLine
10
-166.92858674646456
20
26.601480577731387
30
0
11
-167.27739951260818
21
20.988506484022359
31
0
0
SPLINE
5
167
100
AcDbEntity
8
0
100
AcDbSpline
70
4
71
3
72
8
73
4
74
0
42
0.000000001
43
0.0000000001
44
0.0000000001
40
0
40
0
40
0
40
0
40
1
40
1
40
1
40
1
41
1
41
1
41
1
41
1
10
-167.27739951260821
20
20.988506484022356
30
0
10
-167.32874744489382
20
20.162233360847779
30
0
10
-166.68742815295192
20
19.435926463844417
30
0
10
-165.86115394288475
20
19.384578464014925
30
0
0
LINE
5
168
100
AcDbEntity
8
0
100
AcDbLine
10
-165.86115394288475
20
19.384578464014929
30
0
11
-160.24818310985347
21
19.03576590050293
31
0
0
SPLINE
5
169
100
AcDbEntity
8
0
100
AcDbSpline
70
4
71
3
72
8
73
4
74
0
42
0.000000001
43
0.0000000001
44
0.0000000001
40
0
40
0
40
0
40
0
40
1
40
1
40
1
40
1
41
1
41
1
41
1
41
1
10
-160.24818310985347
20
19.035765900502941
30
0
10
-159.42013708274231
20
19.012911808785375
30
0
10
-158.72232212269734
20
19.655999522005825
30
0
10
-158.67097419041173
20
20.482272645180402
30
0
0
SPLINE
5
170
100
AcDbEntity
8
0
100
AcDbSpline
70
4
71
3
72
8
73
4
74
0
42
0.000000001
43
0.0000000001
44
0.0000000001
40
0
40
0
40
0
40
0
40
1
40
1
40
1
40
1
41
1
41
1
41
1
41
1
10
-163.41241554644006
20
13.683565346821069
30
0
10
-157.97039878531035
20
13.345376556322819
30
0
10
-153.27965568542874
20
17.48722681102171
30
0
10
-152.94146675984271
20
22.929245745936555
30
0
0
SPLINE
5
171
100
AcDbEntity
8
0
100
AcDbSpline
70
4
71
3
72
8
73
4
74
0
42
0.000000001
43
0.0000000001
44
0.0000000001
40
0
40
0
40
0
40
0
40
1
40
1
40
1
40
1
41
1
41
1
41
1
41
1
10
-152.94146675984271
20
22.929245745936555
30
0
10
-152.60327783425669
20
28.371264680851382
30
0
10
-156.7451280889556
20
33.062007780733026
30
0
10
-162.1871448500853
20
33.400196571231277
30
0
0
SPLINE
5
172
100
AcDbEntity
8
0
100
AcDbSpline
70
4
71
3
72
8
73
4
74
0
42
0.000000001
43
0.0000000001
44
0.0000000001
40
0
40
0
40
0
40
0
40
1
40
1
40
1
40
1
41
1
41
1
41
1
41
1
10
-162.1871448500853
20
33.400196571231277
30
0
10
-167.62916161121498
20
33.738385361729542
30
0
10
-172.31990471109665
20
29.59653510703065
30
0
10
-172.65809363668265
20
24.154516172115823
30
0
0
SPLINE
5
173
100
AcDbEntity
8
0
100
AcDbSpline
70
4
71
3
72
8
73
4
74
0
42
0.000000001
43
0.0000000001
44
0.0000000001
40
0
40
0
40
0
40
0
40
1
40
1
40
1
40
1
41
1
41
1
41
1
41
1
10
-172.65809363668265
20
24.154516172115823
30
0
10
-172.99628256226865
20
18.712497237200978
30
0
10
-168.85443230756977
20
14.021754137319338
30
0
10
-163.41241554644006
20
13.683565346821069
30
0
0
SPLINE
5
174
100
AcDbEntity
8
0
100
AcDbSpline
70
4
71
3
72
8
73
4
74
0
42
0.000000001
43
0.0000000001
44
0.0000000001
40
0
40
0
40
0
40
0
40
1
40
1
40
1
40
1
41
1
41
1
41
1
41
1
10
-162.10038447617501
20
34.796314426959455
30
0
10
-155.88907819561203
20
34.410318894302954
30
0
10
-151.15935133276065
20
29.053789343716332
30
0
10
-151.54534673032941
20
22.842485236938508
30
0
0
SPLINE
5
175
100
AcDbEntity
8
0
100
AcDbSpline
70
4
71
3
72
8
73
4
74
0
42
0.000000001
43
0.0000000001
44
0.0000000001
40
0
40
0
40
0
40
0
40
1
40
1
40
1
40
1
41
1
41
1
41
1
41
1
10
-151.54534673032941
20
22.842485236938508
30
0
10
-151.93134212789818
20
16.631181130160666
30
0
10
-157.28786963978737
20
11.901451958436393
30
0
10
-163.49917592035035
20
12.287447491092891
30
0
0
SPLINE
5
176
100
AcDbEntity
8
0
100
AcDbSpline
70
4
71
3
72
8
73
4
74
0
42
0.000000001
43
0.0000000001
44
0.0000000001
40
0
40
0
40
0
40
0
40
1
40
1
40
1
40
1
41
1
41
1
41
1
41
1
10
-163.49917592035035
20
12.287447491092891
30
0
10
-169.71048328780591
20
12.673443091293262
30
0
10
-174.44020906376471
20
18.029972574336028
30
0
10
-174.05421366619595
20
24.24127668111387
30
0
0
SPLINE
5
177
100
AcDbEntity
8
0
100
AcDbSpline
70
4
71
3
72
8
73
4
74
0
42
0.000000001
43
0.0000000001
44
0.0000000001
40
0
40
0
40
0
40
0
40
1
40
1
40
1
40
1
41
1
41
1
41
1
41
1
10
-174.05421366619595
20
24.24127668111387
30
0
10
-173.66821772518091
20
30.452580754119758
30
0
10
-168.31169184363057
20
35.182310027159822
30
0
10
-162.10038447617501
20
34.796314426959455
30
0
0
ENDSEC
0
SECTION
2
OBJECTS
0
DICTIONARY
5
C
100
AcDbDictionary
3
ACAD_GROUP
350
D
3
ACAD_MLINESTYLE
350
17
0
DICTIONARY
5
D
100
AcDbDictionary
0
DICTIONARY
5
1A
330
C
100
AcDbDictionary
0
DICTIONARY
5
17
100
AcDbDictionary
0
ENDSEC
0
EOF
