0
SECTION
2
HEADER
9
$INSUNITS
70
4
9
$ACADVER
1
AC1014
9
$HANDSEED
5
FFFF
0
ENDSEC
0
SECTION
2
TABLES
0
TABLE
2
VPORT
5
8
100
AcDbSymbolTable
0
ENDTAB
0
TABLE
2
LTYPE
5
5
100
AcDbSymbolTable
0
LTYPE
5
14
100
AcDbSymbolTableRecord
100
AcDbLinetypeTableRecord
2
BYBLOCK
70
0
0
LTYPE
5
15
100
AcDbSymbolTableRecord
100
AcDbLinetypeTableRecord
2
BYLAYER
70
0
0
ENDTAB
0
TABLE
2
LAYER
5
2
100
AcDbSymbolTable
70
2
0
LAYER
5
50
100
AcDbSymbolTableRecord
100
AcDbLayerTableRecord
2
0
70
0
6
CONTINUOUS
0
ENDTAB
0
TABLE
2
STYLE
5
3
100
AcDbSymbolTable
70
1
0
STYLE
5
11
100
AcDbSymbolTableRecord
100
AcDbTextStyleTableRecord
2
STANDARD
70
0
0
ENDTAB
0
TABLE
2
VIEW
5
6
100
AcDbSymbolTable
70
0
0
ENDTAB
0
TABLE
2
UCS
5
7
100
AcDbSymbolTable
70
0
0
ENDTAB
0
TABLE
2
APPID
5
9
100
AcDbSymbolTable
70
2
0
APPID
5
12
100
AcDbSymbolTableRecord
100
AcDbRegAppTableRecord
2
ACAD
70
0
0
ENDTAB
0
TABLE
2
DIMSTYLE
5
A
100
AcDbSymbolTable
70
1
0
ENDTAB
0
TABLE
2
BLOCK_RECORD
5
1
100
AcDbSymbolTable
70
1
0
BLOCK_RECORD
5
1F
100
AcDbSymbolTableRecord
100
AcDbBlockTableRecord
2
*MODEL_SPACE
0
BLOCK_RECORD
5
1B
100
AcDbSymbolTableRecord
100
AcDbBlockTableRecord
2
*PAPER_SPACE
0
ENDTAB
0
ENDSEC
0
SECTION
2
BLOCKS
0
BLOCK
5
20
100
AcDbEntity
100
AcDbBlockBegin
2
*MODEL_SPACE
0
ENDBLK
5
21
100
AcDbEntity
100
AcDbBlockEnd
0
BLOCK
5
1C
100
AcDbEntity
100
AcDbBlockBegin
2
*PAPER_SPACE
0
ENDBLK
5
1D
100
AcDbEntity
100
AcDbBlockEnd
0
ENDSEC
0
SECTION
2
ENTITIES
0
LWPOLYLINE
5
100
100
AcDbEntity
8
0
100
AcDbPolyline
90
4
70
1
43
0.0
10
-186.99999999999994
20
-23.178571428571431
10
-190.49999999999997
20
-23.178571428571431
10
-190.49999999999997
20
-40.321428571428577
10
-186.99999999999994
20
-40.321428571428577
0
LWPOLYLINE
5
101
100
AcDbEntity
8
0
100
AcDbPolyline
90
4
70
1
43
0.0
10
-186.99999999999994
20
-56.678571428571438
10
-190.49999999999997
20
-56.678571428571438
10
-190.49999999999997
20
-73.821428571428569
10
-186.99999999999994
20
-73.821428571428569
0
LWPOLYLINE
5
102
100
AcDbEntity
8
0
100
AcDbPolyline
90
4
70
1
43
0.0
10
-186.99999999999994
20
-90.178571428571416
10
-190.49999999999997
20
-90.178571428571416
10
-190.49999999999994
20
-107.32142857142858
10
-186.99999999999991
20
-107.32142857142858
0
LWPOLYLINE
5
103
100
AcDbEntity
8
0
100
AcDbPolyline
90
4
70
1
43
0.0
10
-60
20
-23.178571428571427
10
-63.500000000000014
20
-23.178571428571427
10
-63.500000000000014
20
-40.321428571428569
10
-60.000000000000014
20
-40.321428571428569
0
LWPOLYLINE
5
104
100
AcDbEntity
8
0
100
AcDbPolyline
90
4
70
1
43
0.0
10
-60
20
-56.678571428571431
10
-63.500000000000014
20
-56.678571428571431
10
-63.500000000000028
20
-73.821428571428555
10
-60.000000000000014
20
-73.821428571428555
0
LWPOLYLINE
5
105
100
AcDbEntity
8
0
100
AcDbPolyline
90
4
70
1
43
0.0
10
-60.000000000000007
20
-90.178571428571416
10
-63.500000000000028
20
-90.178571428571416
10
-63.500000000000028
20
-107.32142857142858
10
-60.000000000000028
20
-107.32142857142858
0
LWPOLYLINE
5
106
100
AcDbEntity
8
0
100
AcDbPolyline
90
4
70
1
43
0.0
10
-202.5
20
-100.49999999999999
10
-202.5
20
-97
10
-228.25
20
-97
10
-228.25
20
-100.49999999999999
0
LWPOLYLINE
5
107
100
AcDbEntity
8
0
100
AcDbPolyline
90
4
70
1
43
0.0
10
-202.5
20
-67
10
-202.5
20
-63.5
10
-228.25
20
-63.5
10
-228.25
20
-67
0
LWPOLYLINE
5
108
100
AcDbEntity
8
0
100
AcDbPolyline
90
4
70
1
43
0.0
10
-228.25
20
-30
10
-228.25
20
-33.5
10
-202.5
20
-33.5
10
-202.5
20
-30
0
LWPOLYLINE
5
109
100
AcDbEntity
8
0
100
AcDbPolyline
90
4
70
1
43
0.0
10
-150.99999999999997
20
-100.49999999999999
10
-150.99999999999997
20
-97
10
-176.75
20
-97
10
-176.75
20
-100.49999999999999
0
LWPOLYLINE
5
110
100
AcDbEntity
8
0
100
AcDbPolyline
90
4
70
1
43
0.0
10
-73.749999999999986
20
-100.49999999999999
10
-73.749999999999986
20
-97
10
-99.5
20
-97
10
-99.5
20
-100.49999999999999
0
LWPOLYLINE
5
111
100
AcDbEntity
8
0
100
AcDbPolyline
90
4
70
1
43
0.0
10
-150.99999999999997
20
-67
10
-150.99999999999997
20
-63.5
10
-176.75
20
-63.5
10
-176.75
20
-67
0
LWPOLYLINE
5
112
100
AcDbEntity
8
0
100
AcDbPolyline
90
4
70
1
43
0.0
10
-73.749999999999986
20
-67
10
-73.749999999999986
20
-63.5
10
-99.5
20
-63.5
10
-99.5
20
-67
0
LWPOLYLINE
5
113
100
AcDbEntity
8
0
100
AcDbPolyline
90
60
70
1
43
0.0
10
-47.999999999999972
20
-130.5
10
-73.749999999999972
20
-130.5
10
-73.749999999999972
20
-134
10
-99.499999999999972
20
-134
10
-99.499999999999972
20
-130.5
10
-150.99999999999997
20
-130.5
10
-150.99999999999997
20
-134
10
-176.74999999999997
20
-134
10
-176.74999999999997
20
-130.5
10
-202.49999999999997
20
-130.5
10
-202.49999999999997
20
-134
10
-228.25
20
-134
10
-228.25
20
-130.5
10
-250.49999999999997
20
-130.5
10
-250.49999999999997
20
-107.32142857142858
10
-254
20
-107.32142857142858
10
-254
20
-90.178571428571416
10
-250.49999999999997
20
-90.178571428571416
10
-250.49999999999997
20
-73.821428571428569
10
-254
20
-73.821428571428569
10
-254
20
-56.678571428571438
10
-250.49999999999997
20
-56.678571428571438
10
-250.49999999999997
20
-40.321428571428577
10
-254
20
-40.321428571428577
10
-254
20
-23.178571428571434
10
-250.49999999999997
20
-23.178571428571434
10
-250.49999999999997
20
4.2792929999999911
10
-228.25
20
4.2792930000000062
10
-228.25
20
0.7792930000000059
10
-202.5
20
0.7792930000000059
10
-202.5
20
4.2792930000000062
10
-176.75
20
4.2792930000000062
10
-176.75
20
0.7792930000000059
10
-150.99999999999997
20
0.7792930000000059
10
-150.99999999999997
20
4.2792930000000062
10
-99.5
20
4.2792930000000062
10
-99.5
20
0.7792930000000059
10
-73.749999999999986
20
0.7792930000000059
10
-73.749999999999986
20
4.2792930000000062
10
-48.000000000000007
20
4.2792930000000062
10
-48.000000000000007
20
0.7792930000000059
10
-22.249999999999979
20
0.7792930000000059
10
-22.249999999999979
20
4.2792930000000062
10
0
20
4.2792930000000018
10
0
20
-23.178571428571427
10
3.5000000000000142
20
-23.178571428571427
10
3.5000000000000142
20
-40.321428571428569
10
8.8656863188084569e-15
20
-40.321428571428569
10
-3.8857805861880479e-15
20
-56.678571428571431
10
3.5000000000000142
20
-56.678571428571431
10
3.5000000000000142
20
-73.821428571428555
10
1.0521391902229615e-14
20
-73.821428571428555
10
-4.4408920985006262e-15
20
-90.178571428571416
10
3.5000000000000142
20
-90.178571428571416
10
3.5000000000000142
20
-107.32142857142858
10
1.2177097485650775e-14
20
-107.32142857142858
10
1.7763568394002505e-14
20
-130.5
10
-22.249999999999979
20
-130.5
10
-22.249999999999979
20
-134
10
-47.999999999999972
20
-134
0
LWPOLYLINE
5
114
100
AcDbEntity
8
0
100
AcDbPolyline
90
4
70
1
43
0.0
10
-48.000000000000043
20
-30
10
-48.000000000000043
20
-33.5
10
-22.249999999999979
20
-33.5
10
-22.249999999999979
20
-30
0
LWPOLYLINE
5
115
100
AcDbEntity
8
0
100
AcDbPolyline
90
4
70
1
43
0.0
10
-48.000000000000007
20
-63.5
10
-48.000000000000007
20
-67
10
-22.249999999999979
20
-67
10
-22.249999999999979
20
-63.5
0
LWPOLYLINE
5
116
100
AcDbEntity
8
0
100
AcDbPolyline
90
4
70
1
43
0.0
10
-48.000000000000007
20
-97
10
-48.000000000000007
20
-100.49999999999999
10
-22.249999999999979
20
-100.49999999999999
10
-22.249999999999979
20
-97
0
ENDSEC
0
SECTION
2
OBJECTS
0
DICTIONARY
5
C
100
AcDbDictionary
3
ACAD_GROUP
350
D
3
ACAD_MLINESTYLE
350
17
0
DICTIONARY
5
D
100
AcDbDictionary
0
DICTIONARY
5
1A
330
C
100
AcDbDictionary
0
DICTIONARY
5
17
100
AcDbDictionary
0
ENDSEC
0
EOF
