999
"DXF R12 Output" (www.mydxf.blogspot.com)
 0 
SECTION
 2 
HEADER
 9 
$ACADVER
 1 
AC1009
 9 
$EXTMIN
 10 
 0 
 20 
 0 
 9 
$EXTMAX
 10 
 8.5 
 20 
 11 
 0 
ENDSEC
 0 
SECTION
 2 
ENTITIES
0
LINE
8
Layer 1
10
118.403000
20
-43.679500
11
118.342861
21
-40.151290
0
LINE
8
Layer 1
10
118.342861
20
-40.151290
11
118.343000
21
-36.683200
0
LINE
8
Layer 1
10
118.343000
20
-36.683200
11
120.235000
21
-36.683200
0
LINE
8
Layer 1
10
120.235000
20
-36.683200
11
122.126000
21
-36.683200
0
LINE
8
Layer 1
10
122.126000
20
-36.683200
11
122.126000
21
-35.986300
0
LINE
8
Layer 1
10
122.126000
20
-35.986300
11
122.126000
21
-35.289400
0
LINE
8
Layer 1
10
122.126000
20
-35.289400
11
120.233000
21
-35.289400
0
LINE
8
Layer 1
10
120.233000
20
-35.289400
11
118.340000
21
-35.289400
0
LINE
8
Layer 1
10
118.340000
20
-35.289400
11
118.366331
21
-32.227880
0
LINE
8
Layer 1
10
118.366331
20
-32.227880
11
118.392663
21
-29.166360
0
LINE
8
Layer 1
10
118.392663
20
-29.166360
11
119.314000
21
-29.166300
0
LINE
8
Layer 1
10
119.314000
20
-29.166300
11
120.235000
21
-29.166300
0
LINE
8
Layer 1
10
120.235000
20
-29.166300
11
120.209910
21
49.672200
0
LINE
8
Layer 1
10
120.209910
20
49.672200
11
120.184821
21
128.510700
0
LINE
8
Layer 1
10
120.184821
20
128.510700
11
119.288766
21
128.525009
0
LINE
8
Layer 1
10
119.288766
20
128.525009
11
118.392711
21
128.539317
0
LINE
8
Layer 1
10
118.392711
20
128.539317
11
118.366380
21
131.600837
0
LINE
8
Layer 1
10
118.366380
20
131.600837
11
118.340048
21
134.662357
0
LINE
8
Layer 1
10
118.340048
20
134.662357
11
120.238000
21
134.662000
0
LINE
8
Layer 1
10
120.238000
20
134.662000
11
122.135000
21
134.662000
0
LINE
8
Layer 1
10
122.135000
20
134.662000
11
122.105559
21
135.318491
0
LINE
8
Layer 1
10
122.105559
20
135.318491
11
122.076120
21
135.974982
0
LINE
8
Layer 1
10
122.076120
20
135.974982
11
120.377190
21
135.961661
0
LINE
8
Layer 1
10
120.377190
20
135.961661
11
118.510410
21
136.012755
0
LINE
8
Layer 1
10
118.510410
20
136.012755
11
118.369119
21
136.616586
0
LINE
8
Layer 1
10
118.369119
20
136.616586
11
118.342564
21
139.551165
0
LINE
8
Layer 1
10
118.342564
20
139.551165
11
118.343000
21
143.026000
0
LINE
8
Layer 1
10
118.343000
20
143.026000
11
121.877000
21
143.026000
0
LINE
8
Layer 1
10
121.877000
20
143.026000
11
125.412000
21
143.026000
0
LINE
8
Layer 1
10
125.412000
20
143.026000
11
125.412000
21
141.184000
0
LINE
8
Layer 1
10
125.412000
20
141.184000
11
125.412000
21
139.342000
0
LINE
8
Layer 1
10
125.412000
20
139.342000
11
126.059000
21
139.342000
0
LINE
8
Layer 1
10
126.059000
20
139.342000
11
126.706000
21
139.342000
0
LINE
8
Layer 1
10
126.706000
20
139.342000
11
126.720083
21
140.959880
0
LINE
8
Layer 1
10
126.720083
20
140.959880
11
126.724768
21
142.801770
0
LINE
8
Layer 1
10
126.724768
20
142.801770
11
126.715370
21
143.025784
0
LINE
8
Layer 1
10
126.715370
20
143.025784
11
129.797000
21
143.026000
0
LINE
8
Layer 1
10
129.797000
20
143.026000
11
132.879000
21
143.026000
0
LINE
8
Layer 1
10
132.879000
20
143.026000
11
132.879000
21
142.428000
0
LINE
8
Layer 1
10
132.879000
20
142.428000
11
132.879000
21
141.831000
0
LINE
8
Layer 1
10
132.879000
20
141.831000
11
183.904000
21
141.831000
0
LINE
8
Layer 1
10
183.904000
20
141.831000
11
234.930000
21
141.831000
0
LINE
8
Layer 1
10
234.930000
20
141.831000
11
234.930000
21
142.428000
0
LINE
8
Layer 1
10
234.930000
20
142.428000
11
234.930000
21
143.026000
0
LINE
8
Layer 1
10
234.930000
20
143.026000
11
237.966000
21
143.026000
0
LINE
8
Layer 1
10
237.966000
20
143.026000
11
241.003000
21
143.026000
0
LINE
8
Layer 1
10
241.003000
20
143.026000
11
241.003000
21
141.184000
0
LINE
8
Layer 1
10
241.003000
20
141.184000
11
241.003000
21
139.342000
0
LINE
8
Layer 1
10
241.003000
20
139.342000
11
241.700000
21
139.342000
0
LINE
8
Layer 1
10
241.700000
20
139.342000
11
242.397000
21
139.342000
0
LINE
8
Layer 1
10
242.397000
20
139.342000
11
242.397000
21
141.184000
0
LINE
8
Layer 1
10
242.397000
20
141.184000
11
242.397000
21
143.026000
0
LINE
8
Layer 1
10
242.397000
20
143.026000
11
245.933000
21
143.026000
0
LINE
8
Layer 1
10
245.933000
20
143.026000
11
249.468000
21
143.026000
0
LINE
8
Layer 1
10
249.468000
20
143.026000
11
249.441838
21
139.516450
0
LINE
8
Layer 1
10
249.441838
20
139.516450
11
249.415676
21
136.006900
0
LINE
8
Layer 1
10
249.415676
20
136.006900
11
247.673346
21
135.983447
0
LINE
8
Layer 1
10
247.673346
20
135.983447
11
245.806566
21
135.958555
0
LINE
8
Layer 1
10
245.806566
20
135.958555
11
245.682112
21
135.309969
0
LINE
8
Layer 1
10
245.682112
20
135.309969
11
245.682000
21
134.662000
0
LINE
8
Layer 1
10
245.682000
20
134.662000
11
247.574000
21
134.662000
0
LINE
8
Layer 1
10
247.574000
20
134.662000
11
249.466000
21
134.662000
0
LINE
8
Layer 1
10
249.466000
20
134.662000
11
249.466000
21
131.630000
0
LINE
8
Layer 1
10
249.466000
20
131.630000
11
249.466000
21
128.598000
0
LINE
8
Layer 1
10
249.466000
20
128.598000
11
249.127012
21
128.534407
0
LINE
8
Layer 1
10
249.127012
20
128.534407
11
248.131398
21
128.514172
0
LINE
8
Layer 1
10
248.131398
20
128.514172
11
247.474766
21
128.557535
0
LINE
8
Layer 1
10
247.474766
20
128.557535
11
247.474000
21
49.720600
0
LINE
8
Layer 1
10
247.474000
20
49.720600
11
247.474000
21
-29.116500
0
LINE
8
Layer 1
10
247.474000
20
-29.116500
11
248.245603
21
-29.127083
0
LINE
8
Layer 1
10
248.245603
20
-29.127083
11
249.216331
21
-29.151975
0
LINE
8
Layer 1
10
249.216331
20
-29.151975
11
249.329744
21
-29.219264
0
LINE
8
Layer 1
10
249.329744
20
-29.219264
11
249.392148
21
-29.577274
0
LINE
8
Layer 1
10
249.392148
20
-29.577274
11
249.441787
21
-32.227805
0
LINE
8
Layer 1
10
249.441787
20
-32.227805
11
249.468118
21
-35.289325
0
LINE
8
Layer 1
10
249.468118
20
-35.289325
11
247.575000
21
-35.289400
0
LINE
8
Layer 1
10
247.575000
20
-35.289400
11
245.682000
21
-35.289400
0
LINE
8
Layer 1
10
245.682000
20
-35.289400
11
245.682000
21
-35.986300
0
LINE
8
Layer 1
10
245.682000
20
-35.986300
11
245.682000
21
-36.683200
0
LINE
8
Layer 1
10
245.682000
20
-36.683200
11
247.574000
21
-36.683200
0
LINE
8
Layer 1
10
247.574000
20
-36.683200
11
249.466000
21
-36.683200
0
LINE
8
Layer 1
10
249.466000
20
-36.683200
11
249.466000
21
-40.157200
0
LINE
8
Layer 1
10
249.466000
20
-40.157200
11
249.439606
21
-43.037894
0
LINE
8
Layer 1
10
249.439606
20
-43.037894
11
249.314029
21
-43.689520
0
LINE
8
Layer 1
10
249.314029
20
-43.689520
11
245.804479
21
-43.725063
0
LINE
8
Layer 1
10
245.804479
20
-43.725063
11
242.446899
21
-43.702288
0
LINE
8
Layer 1
10
242.446899
20
-43.702288
11
242.419806
21
-41.835508
0
LINE
8
Layer 1
10
242.419806
20
-41.835508
11
242.392712
21
-39.968728
0
LINE
8
Layer 1
10
242.392712
20
-39.968728
11
241.698000
21
-39.968800
0
LINE
8
Layer 1
10
241.698000
20
-39.968800
11
241.003000
21
-39.968800
0
LINE
8
Layer 1
10
241.003000
20
-39.968800
11
241.003000
21
-41.857000
0
LINE
8
Layer 1
10
241.003000
20
-41.857000
11
241.003000
21
-43.745200
0
LINE
8
Layer 1
10
241.003000
20
-43.745200
11
237.991260
21
-43.723779
0
LINE
8
Layer 1
10
237.991260
20
-43.723779
11
234.979520
21
-43.702359
0
LINE
8
Layer 1
10
234.979520
20
-43.702359
11
234.949881
21
-43.080099
0
LINE
8
Layer 1
10
234.949881
20
-43.080099
11
234.920242
21
-42.457839
0
LINE
8
Layer 1
10
234.920242
20
-42.457839
11
183.904000
21
-42.457800
0
LINE
8
Layer 1
10
183.904000
20
-42.457800
11
132.888000
21
-42.457800
0
LINE
8
Layer 1
10
132.888000
20
-42.457800
11
132.858358
21
-43.080060
0
LINE
8
Layer 1
10
132.858358
20
-43.080060
11
132.828716
21
-43.702320
0
LINE
8
Layer 1
10
132.828716
20
-43.702320
11
129.793000
21
-43.702300
0
LINE
8
Layer 1
10
129.793000
20
-43.702300
11
126.756000
21
-43.702300
0
LINE
8
Layer 1
10
126.756000
20
-43.702300
11
126.740929
21
-43.453397
0
LINE
8
Layer 1
10
126.740929
20
-43.453397
11
126.716037
21
-41.586617
0
LINE
8
Layer 1
10
126.716037
20
-41.586617
11
126.706216
21
-39.968737
0
LINE
8
Layer 1
10
126.706216
20
-39.968737
11
126.061000
21
-39.968800
0
LINE
8
Layer 1
10
126.061000
20
-39.968800
11
125.416000
21
-39.968800
0
LINE
8
Layer 1
10
125.416000
20
-39.968800
11
125.388907
21
-41.835580
0
LINE
8
Layer 1
10
125.388907
20
-41.835580
11
125.361813
21
-43.702360
0
LINE
8
Layer 1
10
125.361813
20
-43.702360
11
121.912403
21
-43.721015
0
LINE
8
Layer 1
10
121.912403
20
-43.721015
11
118.402853
21
-43.679528
0
LINE
8
Layer 1
10
118.402853
20
-43.679528
11
118.403000
21
-43.679500
0
LINE
8
Layer 1
10
124.913930
20
-40.157240
11
124.914000
21
-37.181000
0
LINE
8
Layer 1
10
124.914000
20
-37.181000
11
121.877000
21
-37.181000
0
LINE
8
Layer 1
10
121.877000
20
-37.181000
11
118.841000
21
-37.181000
0
LINE
8
Layer 1
10
118.841000
20
-37.181000
11
118.841000
21
-40.166400
0
LINE
8
Layer 1
10
118.841000
20
-40.166400
11
118.841000
21
-43.151700
0
LINE
8
Layer 1
10
118.841000
20
-43.151700
11
121.753180
21
-43.178088
0
LINE
8
Layer 1
10
121.753180
20
-43.178088
11
124.789810
21
-43.168944
0
LINE
8
Layer 1
10
124.789810
20
-43.168944
11
124.914264
21
-40.157204
0
LINE
8
Layer 1
10
124.914264
20
-40.157204
11
124.913930
21
-40.157240
0
LINE
8
Layer 1
10
128.174570
20
-43.162360
11
128.597708
21
-43.154796
0
LINE
8
Layer 1
10
128.597708
20
-43.154796
11
122.087000
21
-45.084100
0
LINE
8
Layer 1
10
122.087000
20
-45.084100
11
122.087000
21
-43.491100
0
LINE
8
Layer 1
10
122.087000
20
-43.491100
11
121.394000
21
-43.491100
0
LINE
8
Layer 1
10
121.394000
20
-43.491100
11
120.701000
21
-43.491100
0
LINE
8
Layer 1
10
120.701000
20
-43.491100
11
120.727359
21
-45.012510
0
LINE
8
Layer 1
10
120.727359
20
-45.012510
11
120.823227
21
-46.646410
0
LINE
8
Layer 1
10
120.823227
20
-46.646410
11
121.066587
21
-46.725602
0
LINE
8
Layer 1
10
121.066587
20
-46.725602
11
121.663563
21
-46.684693
0
LINE
8
Layer 1
10
121.663563
20
-46.684693
11
128.174570
21
-43.162360
0
LINE
8
Layer 1
10
132.358630
20
-41.586650
11
132.385977
21
-39.968770
0
LINE
8
Layer 1
10
132.385977
20
-39.968770
11
120.969000
21
-40.485900
0
LINE
8
Layer 1
10
120.969000
20
-40.485900
11
119.324000
21
-40.485900
0
LINE
8
Layer 1
10
119.324000
20
-40.485900
11
119.324000
21
-42.076100
0
LINE
8
Layer 1
10
119.324000
20
-42.076100
11
119.324000
21
-43.666300
0
LINE
8
Layer 1
10
119.324000
20
-43.666300
11
120.692970
21
-43.693986
0
LINE
8
Layer 1
10
120.692970
20
-43.693986
11
122.310850
21
-43.721672
0
LINE
8
Layer 1
10
122.310850
20
-43.721672
11
122.560000
21
-43.721600
0
LINE
8
Layer 1
10
122.560000
20
-43.721600
11
132.358630
21
-41.586650
0
LINE
8
Layer 1
10
238.638630
20
-43.156590
11
238.713303
21
-41.561760
0
LINE
8
Layer 1
10
238.713303
20
-41.561760
11
224.757000
21
-42.061600
0
LINE
8
Layer 1
10
224.757000
20
-42.061600
11
223.115000
21
-42.061600
0
LINE
8
Layer 1
10
223.115000
20
-42.061600
11
221.472000
21
-42.061600
0
LINE
8
Layer 1
10
221.472000
20
-42.061600
11
221.472000
21
-43.646300
0
LINE
8
Layer 1
10
221.472000
20
-43.646300
11
221.570845
21
-45.264180
0
LINE
8
Layer 1
10
221.570845
20
-45.264180
11
224.682865
21
-45.249420
0
LINE
8
Layer 1
10
224.682865
20
-45.249420
11
238.638630
21
-43.156590
0
LINE
8
Layer 1
10
240.482990
20
-41.586650
11
240.510337
21
-39.968770
0
LINE
8
Layer 1
10
240.510337
20
-39.968770
11
119.625000
21
-40.491700
0
LINE
8
Layer 1
10
119.625000
20
-40.491700
11
118.976000
21
-40.491700
0
LINE
8
Layer 1
10
118.976000
20
-40.491700
11
118.976000
21
-42.078900
0
LINE
8
Layer 1
10
118.976000
20
-42.078900
11
118.976000
21
-43.666200
0
LINE
8
Layer 1
10
118.976000
20
-43.666200
11
119.399135
21
-43.696897
0
LINE
8
Layer 1
10
119.399135
20
-43.696897
11
119.909586
21
-43.732163
0
LINE
8
Layer 1
10
119.909586
20
-43.732163
11
120.151677
21
-43.609373
0
LINE
8
Layer 1
10
120.151677
20
-43.609373
11
120.247878
21
-42.109557
0
LINE
8
Layer 1
10
120.247878
20
-42.109557
11
240.482990
21
-41.586650
0
LINE
8
Layer 1
10
248.968150
20
-40.167900
11
126.888000
21
-39.273900
0
LINE
8
Layer 1
10
126.888000
20
-39.273900
11
123.852000
21
-39.273900
0
LINE
8
Layer 1
10
123.852000
20
-39.273900
11
120.815000
21
-39.273900
0
LINE
8
Layer 1
10
120.815000
20
-39.273900
11
120.815000
21
-42.260700
0
LINE
8
Layer 1
10
120.815000
20
-42.260700
11
120.815000
21
-45.247600
0
LINE
8
Layer 1
10
120.815000
20
-45.247600
11
123.852000
21
-45.247600
0
LINE
8
Layer 1
10
123.852000
20
-45.247600
11
126.888000
21
-45.247600
0
LINE
8
Layer 1
10
126.888000
20
-45.247600
11
248.968150
21
-40.167900
0
LINE
8
Layer 1
10
234.929950
20
-41.760890
11
234.123345
21
-41.645882
0
LINE
8
Layer 1
10
234.123345
20
-41.645882
11
228.526896
21
-41.586756
0
LINE
8
Layer 1
10
228.526896
20
-41.586756
11
183.904650
21
-41.561768
0
LINE
8
Layer 1
10
183.904650
20
-41.561768
11
139.282325
21
-41.586658
0
LINE
8
Layer 1
10
139.282325
20
-41.586658
11
133.685859
21
-41.645773
0
LINE
8
Layer 1
10
133.685859
20
-41.645773
11
132.879250
21
-41.760890
0
LINE
8
Layer 1
10
132.879250
20
-41.760890
11
133.685856
21
-41.875899
0
LINE
8
Layer 1
10
133.685856
20
-41.875899
11
139.282316
21
-41.935027
0
LINE
8
Layer 1
10
139.282316
20
-41.935027
11
183.904650
21
-41.960015
0
LINE
8
Layer 1
10
183.904650
20
-41.960015
11
228.526925
21
-41.935124
0
LINE
8
Layer 1
10
228.526925
20
-41.935124
11
234.123356
21
-41.876009
0
LINE
8
Layer 1
10
234.123356
20
-41.876009
11
234.929950
21
-41.760890
0
LINE
8
Layer 1
10
234.929950
20
-41.760890
11
234.929950
21
-41.760890
0
LINE
8
Layer 1
10
234.929950
20
-40.267470
11
118.403000
21
-41.389600
0
LINE
8
Layer 1
10
118.403000
20
-41.389600
11
120.295000
21
-41.389600
0
LINE
8
Layer 1
10
120.295000
20
-41.389600
11
122.186000
21
-41.389600
0
LINE
8
Layer 1
10
122.186000
20
-41.389600
11
122.186000
21
-39.999400
0
LINE
8
Layer 1
10
122.186000
20
-39.999400
11
122.186000
21
-38.609300
0
LINE
8
Layer 1
10
122.186000
20
-38.609300
11
123.097557
21
-38.580666
0
LINE
8
Layer 1
10
123.097557
20
-38.580666
11
124.009103
21
-38.552043
0
LINE
8
Layer 1
10
124.009103
20
-38.552043
11
124.018473
21
-37.655988
0
LINE
8
Layer 1
10
124.018473
20
-37.655988
11
124.027843
21
-36.759933
0
LINE
8
Layer 1
10
124.027843
20
-36.759933
11
124.948790
21
-36.731310
0
LINE
8
Layer 1
10
124.948790
20
-36.731310
11
125.869734
21
-36.702676
0
LINE
8
Layer 1
10
125.869734
20
-36.702676
11
125.870000
21
-35.760600
0
LINE
8
Layer 1
10
125.870000
20
-35.760600
11
125.870000
21
-34.818500
0
LINE
8
Layer 1
10
125.870000
20
-34.818500
11
127.264000
21
-34.818500
0
LINE
8
Layer 1
10
127.264000
20
-34.818500
11
128.658000
21
-34.818500
0
LINE
8
Layer 1
10
128.658000
20
-34.818500
11
128.658000
21
49.686500
0
LINE
8
Layer 1
10
128.658000
20
49.686500
11
128.658000
21
132.273000
0
LINE
8
Layer 1
10
128.658000
20
132.273000
11
127.264000
21
132.273000
0
LINE
8
Layer 1
10
127.264000
20
132.273000
11
125.870000
21
132.273000
0
LINE
8
Layer 1
10
125.870000
20
132.273000
11
125.870000
21
133.219000
0
LINE
8
Layer 1
10
125.870000
20
133.219000
11
125.870000
21
134.165000
0
LINE
8
Layer 1
10
125.870000
20
134.165000
11
124.918000
21
134.165000
0
LINE
8
Layer 1
10
124.918000
20
134.165000
11
123.967000
21
134.165000
0
LINE
8
Layer 1
10
123.967000
20
134.165000
11
123.986897
21
135.069787
0
LINE
8
Layer 1
10
123.986897
20
135.069787
11
124.006765
21
135.974574
0
LINE
8
Layer 1
10
124.006765
20
135.974574
11
123.121711
21
135.990745
0
LINE
8
Layer 1
10
123.121711
20
135.990745
11
122.236649
21
136.006917
0
LINE
8
Layer 1
10
122.236649
20
136.006917
11
122.209020
21
137.425667
0
LINE
8
Layer 1
10
122.209020
20
137.425667
11
122.181390
21
138.844417
0
LINE
8
Layer 1
10
122.181390
20
138.844417
11
120.292000
21
138.844000
0
LINE
8
Layer 1
10
120.292000
20
138.844000
11
118.403000
21
138.844000
0
LINE
8
Layer 1
10
118.403000
20
138.844000
11
118.403000
21
139.591000
0
LINE
8
Layer 1
10
118.403000
20
139.591000
11
118.403000
21
140.337000
0
LINE
8
Layer 1
10
118.403000
20
140.337000
11
183.904000
21
140.337000
0
LINE
8
Layer 1
10
183.904000
20
140.337000
11
132.879000
21
140.337000
0
LINE
8
Layer 1
10
132.879000
20
140.337000
11
132.879000
21
139.591000
0
LINE
8
Layer 1
10
132.879000
20
139.591000
11
132.879000
21
138.844000
0
LINE
8
Layer 1
10
132.879000
20
138.844000
11
130.990000
21
138.844000
0
LINE
8
Layer 1
10
130.990000
20
138.844000
11
129.101000
21
138.844000
0
LINE
8
Layer 1
10
129.101000
20
138.844000
11
129.073371
21
137.425250
0
LINE
8
Layer 1
10
129.073371
20
137.425250
11
129.045741
21
136.006500
0
LINE
8
Layer 1
10
129.045741
20
136.006500
11
128.175000
21
136.006000
0
LINE
8
Layer 1
10
128.175000
20
136.006000
11
127.303000
21
136.006000
0
LINE
8
Layer 1
10
127.303000
20
136.006000
11
127.291175
21
135.159723
0
LINE
8
Layer 1
10
127.291175
20
135.159723
11
127.291141
21
134.238779
0
LINE
8
Layer 1
10
127.291141
20
134.238779
11
126.357096
21
134.164109
0
LINE
8
Layer 1
10
126.357096
20
134.164109
11
125.412000
21
134.165000
0
LINE
8
Layer 1
10
125.412000
20
134.165000
11
125.412000
21
133.219000
0
LINE
8
Layer 1
10
125.412000
20
133.219000
11
125.412000
21
132.273000
0
LINE
8
Layer 1
10
125.412000
20
132.273000
11
123.972000
21
132.273000
0
LINE
8
Layer 1
10
123.972000
20
132.273000
11
122.533000
21
132.273000
0
LINE
8
Layer 1
10
122.533000
20
132.273000
11
122.547929
21
51.404000
0
LINE
8
Layer 1
10
122.547929
20
51.404000
11
122.598046
21
-31.179600
0
LINE
8
Layer 1
10
122.598046
20
-31.179600
11
122.633242
21
-32.894260
0
LINE
8
Layer 1
10
122.633242
20
-32.894260
11
123.997702
21
-32.921918
0
LINE
8
Layer 1
10
123.997702
20
-32.921918
11
125.362162
21
-32.949576
0
LINE
8
Layer 1
10
125.362162
20
-32.949576
11
125.390788
21
-33.870523
0
LINE
8
Layer 1
10
125.390788
20
-33.870523
11
125.419417
21
-34.791467
0
LINE
8
Layer 1
10
125.419417
20
-34.791467
11
126.353000
21
-34.791500
0
LINE
8
Layer 1
10
126.353000
20
-34.791500
11
127.286000
21
-34.791500
0
LINE
8
Layer 1
10
127.286000
20
-34.791500
11
127.246655
21
-35.065295
0
LINE
8
Layer 1
10
127.246655
20
-35.065295
11
127.265536
21
-36.011131
0
LINE
8
Layer 1
10
127.265536
20
-36.011131
11
127.323753
21
-36.683172
0
LINE
8
Layer 1
10
127.323753
20
-36.683172
11
128.210000
21
-36.683200
0
LINE
8
Layer 1
10
128.210000
20
-36.683200
11
129.096000
21
-36.683200
0
LINE
8
Layer 1
10
129.096000
20
-36.683200
11
129.096000
21
-38.077000
0
LINE
8
Layer 1
10
129.096000
20
-38.077000
11
129.096000
21
-39.470900
0
LINE
8
Layer 1
10
129.096000
20
-39.470900
11
130.987000
21
-39.470900
0
LINE
8
Layer 1
10
130.987000
20
-39.470900
11
132.879000
21
-39.470900
0
LINE
8
Layer 1
10
132.879000
20
-39.470900
11
132.879000
21
-40.267400
0
LINE
8
Layer 1
10
132.879000
20
-40.267400
11
132.879000
21
-41.063900
0
LINE
8
Layer 1
10
132.879000
20
-41.063900
11
183.904000
21
-41.063900
0
LINE
8
Layer 1
10
183.904000
20
-41.063900
11
234.930000
21
-41.063900
0
LINE
8
Layer 1
10
234.930000
20
-41.063900
11
234.930000
21
-40.267400
0
LINE
8
Layer 1
10
234.930000
20
-40.267400
11
234.929950
21
-40.267470
0
LINE
8
Layer 1
10
126.705950
20
-38.425580
11
126.730842
21
-37.305510
0
LINE
8
Layer 1
10
126.730842
20
-37.305510
11
126.083693
21
-37.201398
0
LINE
8
Layer 1
10
126.083693
20
-37.201398
11
125.411652
21
-37.171957
0
LINE
8
Layer 1
10
125.411652
20
-37.171957
11
8.885280
21
-41.733500
0
LINE
8
Layer 1
10
8.885280
20
-41.733500
11
8.885280
21
-42.883000
0
LINE
8
Layer 1
10
8.885280
20
-42.883000
11
9.532430
21
-42.883000
0
LINE
8
Layer 1
10
9.532430
20
-42.883000
11
10.179600
21
-42.883000
0
LINE
8
Layer 1
10
10.179600
20
-42.883000
11
126.705950
21
-38.425580
0
LINE
8
Layer 1
10
128.597620
20
-38.326018
11
120.295000
21
-42.435000
0
LINE
8
Layer 1
10
120.295000
20
-42.435000
11
119.623000
21
-42.435000
0
LINE
8
Layer 1
10
119.623000
20
-42.435000
11
118.951000
21
-42.435000
0
LINE
8
Layer 1
10
118.951000
20
-42.435000
11
118.938695
21
-43.579530
0
LINE
8
Layer 1
10
118.938695
20
-43.579530
11
118.926390
21
-44.724070
0
LINE
8
Layer 1
10
118.926390
20
-44.724070
11
119.610000
21
-44.724000
0
LINE
8
Layer 1
10
119.610000
20
-44.724000
11
120.295000
21
-44.724000
0
LINE
8
Layer 1
10
120.295000
20
-44.724000
11
120.295000
21
-43.579100
0
LINE
8
Layer 1
10
120.295000
20
-43.579100
11
128.597620
21
-38.326018
0
LINE
8
Layer 1
10
240.523620
20
-38.321925
11
240.554535
21
-37.172915
0
LINE
8
Layer 1
10
240.554535
20
-37.172915
11
239.857602
21
-37.201860
0
LINE
8
Layer 1
10
239.857602
20
-37.201860
11
239.185561
21
-37.305472
0
LINE
8
Layer 1
10
239.185561
20
-37.305472
11
239.210453
21
-38.425542
0
LINE
8
Layer 1
10
239.210453
20
-38.425542
11
229.016000
21
-44.824400
0
LINE
8
Layer 1
10
229.016000
20
-44.824400
11
229.657000
21
-44.824400
0
LINE
8
Layer 1
10
229.657000
20
-44.824400
11
230.298000
21
-44.824400
0
LINE
8
Layer 1
10
230.298000
20
-44.824400
11
240.523620
21
-38.321925
0
LINE
8
Layer 1
10
242.396430
20
-38.326018
11
120.276000
21
-42.538600
0
LINE
8
Layer 1
10
120.276000
20
-42.538600
11
119.579000
21
-42.538600
0
LINE
8
Layer 1
10
119.579000
20
-42.538600
11
118.882000
21
-42.538600
0
LINE
8
Layer 1
10
118.882000
20
-42.538600
11
118.882000
21
-43.683600
0
LINE
8
Layer 1
10
118.882000
20
-43.683600
11
118.882000
21
-44.828500
0
LINE
8
Layer 1
10
118.882000
20
-44.828500
11
119.579000
21
-44.828500
0
LINE
8
Layer 1
10
119.579000
20
-44.828500
11
120.276000
21
-44.828500
0
LINE
8
Layer 1
10
120.276000
20
-44.828500
11
242.396430
21
-38.326018
0
LINE
8
Layer 1
10
124.893430
20
-35.961428
11
124.922869
21
-35.289387
0
LINE
8
Layer 1
10
124.922869
20
-35.289387
11
123.748469
21
-35.289336
0
LINE
8
Layer 1
10
123.748469
20
-35.289336
11
122.574069
21
-35.289277
0
LINE
8
Layer 1
10
122.574069
20
-35.289277
11
122.593881
21
-35.961377
0
LINE
8
Layer 1
10
122.593881
20
-35.961377
11
122.618773
21
-36.661623
0
LINE
8
Layer 1
10
122.618773
20
-36.661623
11
123.743923
21
-36.661623
0
LINE
8
Layer 1
10
123.743923
20
-36.661623
11
124.863993
21
-36.633457
0
LINE
8
Layer 1
10
124.863993
20
-36.633457
11
124.893430
21
-35.961428
0
LINE
8
Layer 1
10
126.715750
20
-36.558799
11
126.713210
21
-35.364059
0
LINE
8
Layer 1
10
126.713210
20
-35.364059
11
126.058700
21
-35.289388
0
LINE
8
Layer 1
10
126.058700
20
-35.289388
11
118.921000
21
-43.007400
0
LINE
8
Layer 1
10
118.921000
20
-43.007400
11
118.921000
21
-43.704400
0
LINE
8
Layer 1
10
118.921000
20
-43.704400
11
118.921000
21
-44.401300
0
LINE
8
Layer 1
10
118.921000
20
-44.401300
11
119.568000
21
-44.401300
0
LINE
8
Layer 1
10
119.568000
20
-44.401300
11
120.225018
21
-44.276849
0
LINE
8
Layer 1
10
120.225018
20
-44.276849
11
126.715750
21
-36.558799
0
LINE
8
Layer 1
10
242.396750
20
-35.986317
11
234.084000
21
-42.410100
0
LINE
8
Layer 1
10
234.084000
20
-42.410100
11
233.387000
21
-42.410100
0
LINE
8
Layer 1
10
233.387000
20
-42.410100
11
232.690000
21
-42.410100
0
LINE
8
Layer 1
10
232.690000
20
-42.410100
11
232.690000
21
-43.040600
0
LINE
8
Layer 1
10
232.690000
20
-43.040600
11
232.756376
21
-43.737530
0
LINE
8
Layer 1
10
232.756376
20
-43.737530
11
233.453309
21
-43.803909
0
LINE
8
Layer 1
10
233.453309
20
-43.803909
11
234.084000
21
-43.803900
0
LINE
8
Layer 1
10
234.084000
20
-43.803900
11
242.396750
21
-35.986317
0
LINE
8
Layer 1
10
245.184480
20
-35.986317
11
121.191000
21
-42.982600
0
LINE
8
Layer 1
10
121.191000
20
-42.982600
11
120.046000
21
-42.982600
0
LINE
8
Layer 1
10
120.046000
20
-42.982600
11
118.901000
21
-42.982600
0
LINE
8
Layer 1
10
118.901000
20
-42.982600
11
118.901000
21
-43.679500
0
LINE
8
Layer 1
10
118.901000
20
-43.679500
11
118.901000
21
-44.376400
0
LINE
8
Layer 1
10
118.901000
20
-44.376400
11
120.046000
21
-44.376400
0
LINE
8
Layer 1
10
120.046000
20
-44.376400
11
121.191000
21
-44.376400
0
LINE
8
Layer 1
10
121.191000
20
-44.376400
11
245.184480
21
-35.986317
0
LINE
8
Layer 1
10
122.126480
20
-34.094647
11
-4.655110
21
-41.090900
0
LINE
8
Layer 1
10
-4.655110
20
-41.090900
11
-6.297880
21
-41.090900
0
LINE
8
Layer 1
10
-6.297880
20
-41.090900
11
-7.940650
21
-41.090900
0
LINE
8
Layer 1
10
-7.940650
20
-41.090900
11
-7.940650
21
-41.787800
0
LINE
8
Layer 1
10
-7.940650
20
-41.787800
11
-7.940650
21
-42.484700
0
LINE
8
Layer 1
10
-7.940650
20
-42.484700
11
-6.297880
21
-42.484700
0
LINE
8
Layer 1
10
-6.297880
20
-42.484700
11
-4.655110
21
-42.484700
0
LINE
8
Layer 1
10
-4.655110
20
-42.484700
11
122.126480
21
-34.094647
0
LINE
8
Layer 1
10
124.914210
20
-34.094647
11
121.191000
21
-42.982500
0
LINE
8
Layer 1
10
121.191000
20
-42.982500
11
120.021000
21
-42.982500
0
LINE
8
Layer 1
10
120.021000
20
-42.982500
11
118.851000
21
-42.982500
0
LINE
8
Layer 1
10
118.851000
20
-42.982500
11
118.851000
21
-43.679500
0
LINE
8
Layer 1
10
118.851000
20
-43.679500
11
118.851000
21
-44.376400
0
LINE
8
Layer 1
10
118.851000
20
-44.376400
11
120.021000
21
-44.376400
0
LINE
8
Layer 1
10
120.021000
20
-44.376400
11
121.191000
21
-44.376400
0
LINE
8
Layer 1
10
121.191000
20
-44.376400
11
124.914210
21
-34.094647
0
LINE
8
Layer 1
10
245.184210
20
-34.094647
11
238.674000
21
-42.982500
0
LINE
8
Layer 1
10
238.674000
20
-42.982500
11
237.529000
21
-42.982500
0
LINE
8
Layer 1
10
237.529000
20
-42.982500
11
236.384000
21
-42.982500
0
LINE
8
Layer 1
10
236.384000
20
-42.982500
11
236.384000
21
-43.679500
0
LINE
8
Layer 1
10
236.384000
20
-43.679500
11
236.384000
21
-44.376400
0
LINE
8
Layer 1
10
236.384000
20
-44.376400
11
237.529000
21
-44.376400
0
LINE
8
Layer 1
10
237.529000
20
-44.376400
11
238.674000
21
-44.376400
0
LINE
8
Layer 1
10
238.674000
20
-44.376400
11
245.184210
21
-34.094647
0
LINE
8
Layer 1
10
248.967550
20
-34.094647
11
122.186000
21
-42.982500
0
LINE
8
Layer 1
10
122.186000
20
-42.982500
11
120.544000
21
-42.982500
0
LINE
8
Layer 1
10
120.544000
20
-42.982500
11
118.901000
21
-42.982500
0
LINE
8
Layer 1
10
118.901000
20
-42.982500
11
118.901000
21
-43.679500
0
LINE
8
Layer 1
10
118.901000
20
-43.679500
11
118.901000
21
-44.376400
0
LINE
8
Layer 1
10
118.901000
20
-44.376400
11
120.544000
21
-44.376400
0
LINE
8
Layer 1
10
120.544000
20
-44.376400
11
122.186000
21
-44.376400
0
LINE
8
Layer 1
10
122.186000
20
-44.376400
11
248.967550
21
-34.094647
0
LINE
8
Layer 1
10
122.103550
20
-31.301687
11
122.076203
21
-29.703457
0
LINE
8
Layer 1
10
122.076203
20
-29.703457
11
120.458313
21
-29.683814
0
LINE
8
Layer 1
10
120.458313
20
-29.683814
11
118.840423
21
-29.664171
0
LINE
8
Layer 1
10
118.840423
20
-29.664171
11
118.840431
21
-31.282051
0
LINE
8
Layer 1
10
118.840431
20
-31.282051
11
118.840440
21
-32.899931
0
LINE
8
Layer 1
10
118.840440
20
-32.899931
11
-10.078700
21
-42.484800
0
LINE
8
Layer 1
10
-10.078700
20
-42.484800
11
-8.433510
21
-42.484800
0
LINE
8
Layer 1
10
-8.433510
20
-42.484800
11
122.103550
21
-31.301687
0
LINE
8
Layer 1
10
248.967550
20
-31.306936
11
245.267000
21
-42.091700
0
LINE
8
Layer 1
10
245.267000
20
-42.091700
11
243.972700
21
-42.080637
0
LINE
8
Layer 1
10
243.972700
20
-42.080637
11
242.479270
21
-42.069574
0
LINE
8
Layer 1
10
242.479270
20
-42.069574
11
242.180260
21
-42.082681
0
LINE
8
Layer 1
10
242.180260
20
-42.082681
11
242.033719
21
-42.239119
0
LINE
8
Layer 1
10
242.033719
20
-42.239119
11
241.981461
21
-43.684684
0
LINE
8
Layer 1
10
241.981461
20
-43.684684
11
241.982000
21
-45.277700
0
LINE
8
Layer 1
10
241.982000
20
-45.277700
11
243.624000
21
-45.277700
0
LINE
8
Layer 1
10
243.624000
20
-45.277700
11
245.267000
21
-45.277700
0
LINE
8
Layer 1
10
245.267000
20
-45.277700
11
248.967550
21
-31.306936
0
LINE
8
Layer 1
10
122.226000
20
49.683000
11
122.226000
21
128.465000
0
LINE
8
Layer 1
10
122.226000
20
128.465000
11
121.656987
21
128.512188
0
LINE
8
Layer 1
10
121.656987
20
128.512188
11
120.910276
21
128.512752
0
LINE
8
Layer 1
10
120.910276
20
128.512752
11
120.810635
21
126.798748
0
LINE
8
Layer 1
10
120.810635
20
126.798748
11
120.757536
21
117.406258
0
LINE
8
Layer 1
10
120.757536
20
117.406258
11
120.732575
21
49.682152
0
LINE
8
Layer 1
10
120.732575
20
49.682152
11
120.757522
21
-16.914136
0
LINE
8
Layer 1
10
120.757522
20
-16.914136
11
120.893800
21
-29.134148
0
LINE
8
Layer 1
10
120.893800
20
-29.134148
11
121.640511
21
-29.132737
0
LINE
8
Layer 1
10
121.640511
20
-29.132737
11
122.226000
21
-29.098955
0
LINE
8
Layer 1
10
122.226000
20
-29.098955
11
122.226000
21
49.683000
0
LINE
8
Layer 1
10
246.977000
20
49.694345
11
243.154000
21
128.490000
0
LINE
8
Layer 1
10
243.154000
20
128.490000
11
242.407000
21
128.490000
0
LINE
8
Layer 1
10
242.407000
20
128.490000
11
241.660000
21
128.490000
0
LINE
8
Layer 1
10
241.660000
20
128.490000
11
241.660000
21
49.661600
0
LINE
8
Layer 1
10
241.660000
20
49.661600
11
241.660000
21
-29.166300
0
LINE
8
Layer 1
10
241.660000
20
-29.166300
11
242.406951
21
-29.133543
0
LINE
8
Layer 1
10
242.406951
20
-29.133543
11
243.153891
21
-29.100788
0
LINE
8
Layer 1
10
243.153891
20
-29.100788
11
243.154000
21
49.694400
0
LINE
8
Layer 1
10
243.154000
20
49.694400
11
246.977000
21
49.694345
0
LINE
8
Layer 1
10
122.104000
20
130.663145
11
122.131347
21
132.272865
0
LINE
8
Layer 1
10
122.131347
20
132.272865
11
-8.087540
21
38.899000
0
LINE
8
Layer 1
10
-8.087540
20
38.899000
11
-9.732770
21
38.899000
0
LINE
8
Layer 1
10
-9.732770
20
38.899000
11
-9.732770
21
37.308800
0
LINE
8
Layer 1
10
-9.732770
20
37.308800
11
-9.732770
21
35.718500
0
LINE
8
Layer 1
10
-9.732770
20
35.718500
11
-8.314020
21
35.690870
0
LINE
8
Layer 1
10
-8.314020
20
35.690870
11
-6.696140
21
35.671397
0
LINE
8
Layer 1
10
-6.696140
20
35.671397
11
-6.584510
21
35.712157
0
LINE
8
Layer 1
10
-6.584510
20
35.712157
11
-6.521634
21
35.909093
0
LINE
8
Layer 1
10
-6.521634
20
35.909093
11
-6.469660
21
37.289277
0
LINE
8
Layer 1
10
-6.469660
20
37.289277
11
122.104000
21
130.663145
0
LINE
8
Layer 1
10
248.946000
20
130.676551
11
248.973347
21
132.272871
0
LINE
8
Layer 1
10
248.973347
20
132.272871
11
243.627000
21
-42.069800
0
LINE
8
Layer 1
10
243.627000
20
-42.069800
11
241.982000
21
-42.069800
0
LINE
8
Layer 1
10
241.982000
20
-42.069800
11
241.982000
21
-43.654400
0
LINE
8
Layer 1
10
241.982000
20
-43.654400
11
242.080797
21
-45.272280
0
LINE
8
Layer 1
10
242.080797
20
-45.272280
11
243.698678
21
-45.283908
0
LINE
8
Layer 1
10
243.698678
20
-45.283908
11
245.217758
21
-45.262346
0
LINE
8
Layer 1
10
245.217758
20
-45.262346
11
248.946000
21
130.676551
0
LINE
8
Layer 1
10
122.127000
20
133.467611
11
-8.416040
21
-40.191500
0
LINE
8
Layer 1
10
-8.416040
20
-40.191500
11
-10.058800
21
-40.191500
0
LINE
8
Layer 1
10
-10.058800
20
-40.191500
11
-11.701600
21
-40.191500
0
LINE
8
Layer 1
10
-11.701600
20
-40.191500
11
-11.701600
21
-40.888400
0
LINE
8
Layer 1
10
-11.701600
20
-40.888400
11
-11.701600
21
-41.585300
0
LINE
8
Layer 1
10
-11.701600
20
-41.585300
11
-10.058800
21
-41.585300
0
LINE
8
Layer 1
10
-10.058800
20
-41.585300
11
-8.416040
21
-41.585300
0
LINE
8
Layer 1
10
-8.416040
20
-41.585300
11
122.127000
21
133.467611
0
LINE
8
Layer 1
10
124.914730
20
133.467611
11
121.191000
21
-42.982500
0
LINE
8
Layer 1
10
121.191000
20
-42.982500
11
120.062000
21
-42.982500
0
LINE
8
Layer 1
10
120.062000
20
-42.982500
11
118.892150
21
-43.023600
0
LINE
8
Layer 1
10
118.892150
20
-43.023600
11
118.884050
21
-43.720530
0
LINE
8
Layer 1
10
118.884050
20
-43.720530
11
118.917434
21
-44.376363
0
LINE
8
Layer 1
10
118.917434
20
-44.376363
11
120.054000
21
-44.376400
0
LINE
8
Layer 1
10
120.054000
20
-44.376400
11
121.191000
21
-44.376400
0
LINE
8
Layer 1
10
121.191000
20
-44.376400
11
121.191000
21
-43.679500
0
LINE
8
Layer 1
10
121.191000
20
-43.679500
11
124.914730
21
133.467611
0
LINE
8
Layer 1
10
245.184730
20
133.467611
11
238.674000
21
-42.982500
0
LINE
8
Layer 1
10
238.674000
20
-42.982500
11
237.529000
21
-42.982500
0
LINE
8
Layer 1
10
237.529000
20
-42.982500
11
236.384000
21
-42.982500
0
LINE
8
Layer 1
10
236.384000
20
-42.982500
11
236.384000
21
-43.679500
0
LINE
8
Layer 1
10
236.384000
20
-43.679500
11
236.384000
21
-44.376400
0
LINE
8
Layer 1
10
236.384000
20
-44.376400
11
237.529000
21
-44.376400
0
LINE
8
Layer 1
10
237.529000
20
-44.376400
11
238.674000
21
-44.376400
0
LINE
8
Layer 1
10
238.674000
20
-44.376400
11
245.184730
21
133.467611
0
LINE
8
Layer 1
10
248.947730
20
133.442719
11
248.918289
21
134.114760
0
LINE
8
Layer 1
10
248.918289
20
134.114760
11
120.544000
21
-43.032300
0
LINE
8
Layer 1
10
120.544000
20
-43.032300
11
118.951000
21
-43.032300
0
LINE
8
Layer 1
10
118.951000
20
-43.032300
11
118.921561
21
-43.704341
0
LINE
8
Layer 1
10
118.921561
20
-43.704341
11
118.892120
21
-44.376382
0
LINE
8
Layer 1
10
118.892120
20
-44.376382
11
120.544000
21
-44.376400
0
LINE
8
Layer 1
10
120.544000
20
-44.376400
11
122.196000
21
-44.376400
0
LINE
8
Layer 1
10
122.196000
20
-44.376400
11
248.947730
21
133.442719
0
LINE
8
Layer 1
10
124.914730
20
135.309499
11
124.815168
21
135.960478
0
LINE
8
Layer 1
10
124.815168
20
135.960478
11
123.659138
21
135.968126
0
LINE
8
Layer 1
10
123.659138
20
135.968126
11
122.602668
21
135.971964
0
LINE
8
Layer 1
10
122.602668
20
135.971964
11
122.588839
21
135.317088
0
LINE
8
Layer 1
10
122.588839
20
135.317088
11
122.575010
21
134.662217
0
LINE
8
Layer 1
10
122.575010
20
134.662217
11
123.744860
21
134.662279
0
LINE
8
Layer 1
10
123.744860
20
134.662279
11
124.914710
21
134.662344
0
LINE
8
Layer 1
10
124.914710
20
134.662344
11
124.914730
21
135.309499
0
LINE
8
Layer 1
10
126.724510
20
134.786801
11
126.717906
21
135.857091
0
LINE
8
Layer 1
10
126.717906
20
135.857091
11
126.574114
21
135.975353
0
LINE
8
Layer 1
10
126.574114
20
135.975353
11
126.059395
21
136.006434
0
LINE
8
Layer 1
10
126.059395
20
136.006434
11
118.901000
21
-42.982500
0
LINE
8
Layer 1
10
118.901000
20
-42.982500
11
118.901054
21
-43.654541
0
LINE
8
Layer 1
10
118.901054
20
-43.654541
11
118.901107
21
-44.326582
0
LINE
8
Layer 1
10
118.901107
20
-44.326582
11
119.537000
21
-44.326600
0
LINE
8
Layer 1
10
119.537000
20
-44.326600
11
120.212476
21
-44.202149
0
LINE
8
Layer 1
10
120.212476
20
-44.202149
11
126.724510
21
134.786801
0
LINE
8
Layer 1
10
242.397510
20
135.301004
11
234.076000
21
-42.526600
0
LINE
8
Layer 1
10
234.076000
20
-42.526600
11
233.420167
21
-42.493216
0
LINE
8
Layer 1
10
233.420167
20
-42.493216
11
232.723234
21
-42.501316
0
LINE
8
Layer 1
10
232.723234
20
-42.501316
11
232.682137
21
-43.173357
0
LINE
8
Layer 1
10
232.682137
20
-43.173357
11
232.682000
21
-43.803900
0
LINE
8
Layer 1
10
232.682000
20
-43.803900
11
233.379000
21
-43.803900
0
LINE
8
Layer 1
10
233.379000
20
-43.803900
11
234.076000
21
-43.803900
0
LINE
8
Layer 1
10
234.076000
20
-43.803900
11
234.076000
21
-43.165300
0
LINE
8
Layer 1
10
234.076000
20
-43.165300
11
242.397510
21
135.301004
0
LINE
8
Layer 1
10
245.185260
20
135.334391
11
245.185280
21
136.006432
0
LINE
8
Layer 1
10
245.185280
20
136.006432
11
120.046000
21
-42.974100
0
LINE
8
Layer 1
10
120.046000
20
-42.974100
11
118.901000
21
-42.974100
0
LINE
8
Layer 1
10
118.901000
20
-42.974100
11
118.900980
21
-43.646141
0
LINE
8
Layer 1
10
118.900980
20
-43.646141
11
118.900960
21
-44.318182
0
LINE
8
Layer 1
10
118.900960
20
-44.318182
11
120.046000
21
-44.318100
0
LINE
8
Layer 1
10
120.046000
20
-44.318100
11
121.191000
21
-44.318100
0
LINE
8
Layer 1
10
121.191000
20
-44.318100
11
245.185260
21
135.334391
0
LINE
8
Layer 1
10
124.891260
20
139.530311
11
124.917620
21
142.527711
0
LINE
8
Layer 1
10
124.917620
20
142.527711
11
-4.902570
21
-36.486200
0
LINE
8
Layer 1
10
-4.902570
20
-36.486200
11
-7.940660
21
-36.486200
0
LINE
8
Layer 1
10
-7.940660
20
-36.486200
11
-7.940589
21
-39.497940
0
LINE
8
Layer 1
10
-7.940589
20
-39.497940
11
-7.940519
21
-42.509680
0
LINE
8
Layer 1
10
-7.940519
20
-42.509680
11
-4.928849
21
-42.495343
0
LINE
8
Layer 1
10
-4.928849
20
-42.495343
11
-1.917179
21
-42.481006
0
LINE
8
Layer 1
10
-1.917179
20
-42.481006
11
124.891260
21
139.530311
0
LINE
8
Layer 1
10
126.333450
20
136.545931
11
126.706807
21
136.554030
0
LINE
8
Layer 1
10
126.706807
20
136.554030
11
120.219000
21
-45.510800
0
LINE
8
Layer 1
10
120.219000
20
-45.510800
11
120.219000
21
-44.365800
0
LINE
8
Layer 1
10
120.219000
20
-44.365800
11
119.571000
21
-44.365800
0
LINE
8
Layer 1
10
119.571000
20
-44.365800
11
118.924000
21
-44.365800
0
LINE
8
Layer 1
10
118.924000
20
-44.365800
11
118.924000
21
-45.539000
0
LINE
8
Layer 1
10
118.924000
20
-45.539000
11
118.924000
21
-46.712100
0
LINE
8
Layer 1
10
118.924000
20
-46.712100
11
119.197795
21
-46.692006
0
LINE
8
Layer 1
10
119.197795
20
-46.692006
11
119.844944
21
-46.663840
0
LINE
8
Layer 1
10
119.844944
20
-46.663840
11
126.333450
21
136.545931
0
LINE
8
Layer 1
10
240.505450
20
137.674091
11
240.505521
21
138.843941
0
LINE
8
Layer 1
10
240.505521
20
138.843941
11
231.928000
21
-41.381500
0
LINE
8
Layer 1
10
231.928000
20
-41.381500
11
231.281000
21
-41.381500
0
LINE
8
Layer 1
10
231.281000
20
-41.381500
11
231.281000
21
-42.426900
0
LINE
8
Layer 1
10
231.281000
20
-42.426900
11
231.256108
21
-43.546970
0
LINE
8
Layer 1
10
231.256108
20
-43.546970
11
232.351218
21
-43.725058
0
LINE
8
Layer 1
10
232.351218
20
-43.725058
11
232.545430
21
-43.566365
0
LINE
8
Layer 1
10
232.545430
20
-43.566365
11
232.575232
21
-42.551358
0
LINE
8
Layer 1
10
232.575232
20
-42.551358
11
240.505450
21
137.674091
0
LINE
8
Layer 1
10
242.056870
20
136.554021
11
120.295000
21
-44.799500
0
LINE
8
Layer 1
10
120.295000
20
-44.799500
11
120.295000
21
-43.654600
0
LINE
8
Layer 1
10
120.295000
20
-43.654600
11
120.295000
21
-42.509600
0
LINE
8
Layer 1
10
120.295000
20
-42.509600
11
119.598000
21
-42.509600
0
LINE
8
Layer 1
10
119.598000
20
-42.509600
11
118.901000
21
-42.509600
0
LINE
8
Layer 1
10
118.901000
20
-42.509600
11
118.901000
21
-43.647700
0
LINE
8
Layer 1
10
118.901000
20
-43.647700
11
118.931732
21
-44.635509
0
LINE
8
Layer 1
10
118.931732
20
-44.635509
11
119.125014
21
-44.828460
0
LINE
8
Layer 1
10
119.125014
20
-44.828460
11
119.481624
21
-44.835374
0
LINE
8
Layer 1
10
119.481624
20
-44.835374
11
119.954541
21
-44.799575
0
LINE
8
Layer 1
10
119.954541
20
-44.799575
11
242.056870
21
136.554021
0
LINE
8
Layer 1
10
247.151260
20
136.552045
11
248.968260
21
136.554021
0
LINE
8
Layer 1
10
248.968260
20
136.554021
11
125.314000
21
-40.692600
0
LINE
8
Layer 1
10
125.314000
20
-40.692600
11
125.314000
21
-37.705800
0
LINE
8
Layer 1
10
125.314000
20
-37.705800
11
122.278000
21
-37.705800
0
LINE
8
Layer 1
10
122.278000
20
-37.705800
11
119.241000
21
-37.705800
0
LINE
8
Layer 1
10
119.241000
20
-37.705800
11
119.240910
21
-40.717540
0
LINE
8
Layer 1
10
119.240910
20
-40.717540
11
119.240819
21
-43.729280
0
LINE
8
Layer 1
10
119.240819
20
-43.729280
11
120.460539
21
-43.706364
0
LINE
8
Layer 1
10
120.460539
20
-43.706364
11
123.497259
21
-43.681472
0
LINE
8
Layer 1
10
123.497259
20
-43.681472
11
247.151260
21
136.552045
0
LINE
8
Layer 1
10
128.598260
20
137.698985
11
-0.149947
21
-41.387600
0
LINE
8
Layer 1
10
-0.149947
20
-41.387600
11
-0.782867
21
-41.387600
0
LINE
8
Layer 1
10
-0.782867
20
-41.387600
11
-1.415780
21
-41.387600
0
LINE
8
Layer 1
10
-1.415780
20
-41.387600
11
-1.483183
21
-42.366241
0
LINE
8
Layer 1
10
-1.483183
20
-42.366241
11
-1.486767
21
-43.511201
0
LINE
8
Layer 1
10
-1.486767
20
-43.511201
11
-1.306254
21
-43.643629
0
LINE
8
Layer 1
10
-1.306254
20
-43.643629
11
-0.786447
21
-43.677520
0
LINE
8
Layer 1
10
-0.786447
20
-43.677520
11
-0.149953
21
-43.677500
0
LINE
8
Layer 1
10
-0.149953
20
-43.677500
11
-0.149953
21
-42.532500
0
LINE
8
Layer 1
10
-0.149953
20
-42.532500
11
128.598260
21
137.698985
0
LINE
8
Layer 1
10
128.598260
20
140.934735
11
118.403000
21
-38.850700
0
LINE
8
Layer 1
10
118.403000
20
-38.850700
11
117.765000
21
-38.850700
0
LINE
8
Layer 1
10
117.765000
20
-38.850700
11
117.127000
21
-38.850700
0
LINE
8
Layer 1
10
117.127000
20
-38.850700
11
117.062611
21
-39.771644
0
LINE
8
Layer 1
10
117.062611
20
-39.771644
11
117.100847
21
-42.011784
0
LINE
8
Layer 1
10
117.100847
20
-42.011784
11
117.755567
21
-42.036676
0
LINE
8
Layer 1
10
117.755567
20
-42.036676
11
118.403000
21
-42.036700
0
LINE
8
Layer 1
10
118.403000
20
-42.036700
11
128.598260
21
140.934735
0
LINE
8
Layer 1
10
132.381600
20
140.934735
11
122.186000
21
-42.086500
0
LINE
8
Layer 1
10
122.186000
20
-42.086500
11
120.544000
21
-42.086500
0
LINE
8
Layer 1
10
120.544000
20
-42.086500
11
118.901000
21
-42.086500
0
LINE
8
Layer 1
10
118.901000
20
-42.086500
11
118.901000
21
-43.679500
0
LINE
8
Layer 1
10
118.901000
20
-43.679500
11
118.901000
21
-45.272500
0
LINE
8
Layer 1
10
118.901000
20
-45.272500
11
120.544000
21
-45.272500
0
LINE
8
Layer 1
10
120.544000
20
-45.272500
11
122.186000
21
-45.272500
0
LINE
8
Layer 1
10
122.186000
20
-45.272500
11
132.381600
21
140.934735
0
LINE
8
Layer 1
10
238.713600
20
140.934735
11
224.735000
21
-42.086500
0
LINE
8
Layer 1
10
224.735000
20
-42.086500
11
223.092000
21
-42.086500
0
LINE
8
Layer 1
10
223.092000
20
-42.086500
11
221.449000
21
-42.086500
0
LINE
8
Layer 1
10
221.449000
20
-42.086500
11
221.449000
21
-43.679500
0
LINE
8
Layer 1
10
221.449000
20
-43.679500
11
221.449000
21
-45.272500
0
LINE
8
Layer 1
10
221.449000
20
-45.272500
11
223.092000
21
-45.272500
0
LINE
8
Layer 1
10
223.092000
20
-45.272500
11
224.735000
21
-45.272500
0
LINE
8
Layer 1
10
224.735000
20
-45.272500
11
238.713600
21
140.934735
0
LINE
8
Layer 1
10
240.523670
20
139.565765
11
240.525363
21
141.158755
0
LINE
8
Layer 1
10
240.525363
20
141.158755
11
240.495225
21
142.527725
0
LINE
8
Layer 1
10
240.495225
20
142.527725
11
119.543000
21
-42.086500
0
LINE
8
Layer 1
10
119.543000
20
-42.086500
11
118.901000
21
-42.086500
0
LINE
8
Layer 1
10
118.901000
20
-42.086500
11
118.890332
21
-43.306130
0
LINE
8
Layer 1
10
118.890332
20
-43.306130
11
118.859567
21
-44.824440
0
LINE
8
Layer 1
10
118.859567
20
-44.824440
11
118.876105
21
-45.197797
0
LINE
8
Layer 1
10
118.876105
20
-45.197797
11
119.547099
21
-45.272467
0
LINE
8
Layer 1
10
119.547099
20
-45.272467
11
120.087496
21
-45.237544
0
LINE
8
Layer 1
10
120.087496
20
-45.237544
11
120.213256
21
-45.048453
0
LINE
8
Layer 1
10
120.213256
20
-45.048453
11
240.523670
21
139.565765
0
LINE
8
Layer 1
10
234.930260
20
141.108975
11
112.810000
21
-41.912300
0
LINE
8
Layer 1
10
112.810000
20
-41.912300
11
183.904000
21
-41.912300
0
LINE
8
Layer 1
10
183.904000
20
-41.912300
11
132.879000
21
-41.912300
0
LINE
8
Layer 1
10
132.879000
20
-41.912300
11
132.879000
21
-42.136300
0
LINE
8
Layer 1
10
132.879000
20
-42.136300
11
132.879000
21
-42.360300
0
LINE
8
Layer 1
10
132.879000
20
-42.360300
11
183.904000
21
-42.360300
0
LINE
8
Layer 1
10
183.904000
20
-42.360300
11
234.930000
21
-42.360300
0
LINE
8
Layer 1
10
234.930000
20
-42.360300
11
234.930260
21
141.108975
 0 
ENDSEC
 0 
EOF