0
SECTION
2
HEADER
9
$INSUNITS
70
4
9
$ACADVER
1
AC1014
9
$HANDSEED
5
FFFF
0
ENDSEC
0
SECTION
2
TABLES
0
TABLE
2
VPORT
5
8
100
AcDbSymbolTable
0
ENDTAB
0
TABLE
2
LTYPE
5
5
100
AcDbSymbolTable
0
LTYPE
5
14
100
AcDbSymbolTableRecord
100
AcDbLinetypeTableRecord
2
BYBLOCK
70
0
0
LTYPE
5
15
100
AcDbSymbolTableRecord
100
AcDbLinetypeTableRecord
2
BYLAYER
70
0
0
ENDTAB
0
TABLE
2
LAYER
5
2
100
AcDbSymbolTable
70
2
0
LAYER
5
50
100
AcDbSymbolTableRecord
100
AcDbLayerTableRecord
2
0
70
0
6
CONTINUOUS
0
ENDTAB
0
TABLE
2
STYLE
5
3
100
AcDbSymbolTable
70
1
0
STYLE
5
11
100
AcDbSymbolTableRecord
100
AcDbTextStyleTableRecord
2
STANDARD
70
0
0
ENDTAB
0
TABLE
2
VIEW
5
6
100
AcDbSymbolTable
70
0
0
ENDTAB
0
TABLE
2
UCS
5
7
100
AcDbSymbolTable
70
0
0
ENDTAB
0
TABLE
2
APPID
5
9
100
AcDbSymbolTable
70
2
0
APPID
5
12
100
AcDbSymbolTableRecord
100
AcDbRegAppTableRecord
2
ACAD
70
0
0
ENDTAB
0
TABLE
2
DIMSTYLE
5
A
100
AcDbSymbolTable
70
1
0
ENDTAB
0
TABLE
2
BLOCK_RECORD
5
1
100
AcDbSymbolTable
70
1
0
BLOCK_RECORD
5
1F
100
AcDbSymbolTableRecord
100
AcDbBlockTableRecord
2
*MODEL_SPACE
0
BLOCK_RECORD
5
1B
100
AcDbSymbolTableRecord
100
AcDbBlockTableRecord
2
*PAPER_SPACE
0
ENDTAB
0
ENDSEC
0
SECTION
2
BLOCKS
0
BLOCK
5
20
100
AcDbEntity
100
AcDbBlockBegin
2
*MODEL_SPACE
0
ENDBLK
5
21
100
AcDbEntity
100
AcDbBlockEnd
0
BLOCK
5
1C
100
AcDbEntity
100
AcDbBlockBegin
2
*PAPER_SPACE
0
ENDBLK
5
1D
100
AcDbEntity
100
AcDbBlockEnd
0
ENDSEC
0
SECTION
2
ENTITIES
0
LINE
5
100
100
AcDbEntity
8
0
100
AcDbLine
10
0
20
0
30
0
11
220
21
0
31
0
0
LINE
5
101
100
AcDbEntity
8
0
100
AcDbLine
10
220
20
0
30
0
11
220
21
270
31
0
0
LINE
5
102
100
AcDbEntity
8
0
100
AcDbLine
10
220
20
270
30
0
11
-4.9303806576313238e-31
21
270
31
0
0
LINE
5
103
100
AcDbEntity
8
0
100
AcDbLine
10
-4.9303806576313238e-31
20
270
30
0
11
0
21
0
31
0
0
LINE
5
104
100
AcDbEntity
8
0
100
AcDbLine
10
220
20
270
30
0
11
227
21
270
31
0
0
LINE
5
105
100
AcDbEntity
8
0
100
AcDbLine
10
227
20
270
30
0
11
227
21
0
31
0
0
LINE
5
106
100
AcDbEntity
8
0
100
AcDbLine
10
227
20
0
30
0
11
220
21
0
31
0
0
LINE
5
107
100
AcDbEntity
8
0
100
AcDbLine
10
220
20
0
30
0
11
220
21
270
31
0
0
LINE
5
108
100
AcDbEntity
8
0
100
AcDbLine
10
227
20
270
30
0
11
327
21
270
31
0
0
LINE
5
109
100
AcDbEntity
8
0
100
AcDbLine
10
327
20
270
30
0
11
327
21
0
31
0
0
LINE
5
110
100
AcDbEntity
8
0
100
AcDbLine
10
327
20
0
30
0
11
227
21
0
31
0
0
LINE
5
111
100
AcDbEntity
8
0
100
AcDbLine
10
227
20
0
30
0
11
227
21
270
31
0
0
LINE
5
112
100
AcDbEntity
8
0
100
AcDbLine
10
327
20
270
30
0
11
334.00000000000006
21
270
31
0
0
LINE
5
113
100
AcDbEntity
8
0
100
AcDbLine
10
334.00000000000006
20
270
30
0
11
334.00000000000006
21
0
31
0
0
LINE
5
114
100
AcDbEntity
8
0
100
AcDbLine
10
334.00000000000006
20
0
30
0
11
327
21
0
31
0
0
LINE
5
115
100
AcDbEntity
8
0
100
AcDbLine
10
327
20
0
30
0
11
327
21
270
31
0
0
LINE
5
116
100
AcDbEntity
8
0
100
AcDbLine
10
334.00000000000006
20
270
30
0
11
554
21
270
31
0
0
LINE
5
117
100
AcDbEntity
8
0
100
AcDbLine
10
554
20
270
30
0
11
554
21
-3.5273822157652528e-15
31
0
0
LINE
5
118
100
AcDbEntity
8
0
100
AcDbLine
10
554
20
-3.5273822157652528e-15
30
0
11
334.00000000000006
21
-3.5273822157652528e-15
31
0
0
LINE
5
119
100
AcDbEntity
8
0
100
AcDbLine
10
334.00000000000006
20
-3.5273822157652528e-15
30
0
11
334.00000000000006
21
270
31
0
0
LINE
5
120
100
AcDbEntity
8
0
100
AcDbLine
10
554
20
270
30
0
11
561.00000000000011
21
270
31
0
0
LINE
5
121
100
AcDbEntity
8
0
100
AcDbLine
10
561.00000000000011
20
270
30
0
11
561.00000000000011
21
0
31
0
0
LINE
5
122
100
AcDbEntity
8
0
100
AcDbLine
10
561.00000000000011
20
0
30
0
11
554
21
0
31
0
0
LINE
5
123
100
AcDbEntity
8
0
100
AcDbLine
10
554
20
0
30
0
11
554
21
270
31
0
0
LINE
5
124
100
AcDbEntity
8
0
100
AcDbLine
10
561.00000000000011
20
270
30
0
11
661.00000000000011
21
270
31
0
0
LINE
5
125
100
AcDbEntity
8
0
100
AcDbLine
10
661.00000000000011
20
270
30
0
11
661.00000000000011
21
0
31
0
0
LINE
5
126
100
AcDbEntity
8
0
100
AcDbLine
10
661.00000000000011
20
0
30
0
11
561.00000000000011
21
0
31
0
0
LINE
5
127
100
AcDbEntity
8
0
100
AcDbLine
10
561.00000000000011
20
0
30
0
11
561.00000000000011
21
270
31
0
0
LWPOLYLINE
5
128
100
AcDbEntity
8
0
100
AcDbPolyline
90
4
70
1
43
0.0
10
200
20
150
10
30
20
150
10
30
20
200
10
200
20
200
0
LWPOLYLINE
5
129
100
AcDbEntity
8
0
100
AcDbPolyline
90
4
70
1
43
0.0
10
180
20
70
10
40
20
70
10
40
20
110
10
180
20
110
0
LINE
5
130
100
AcDbEntity
8
0
100
AcDbLine
10
223.5
20
270
30
0
11
223.5
21
0
31
0
0
LINE
5
131
100
AcDbEntity
8
0
100
AcDbLine
10
330.50000000000006
20
0
30
0
11
330.50000000000006
21
270
31
0
0
LINE
5
132
100
AcDbEntity
8
0
100
AcDbLine
10
557.50000000000011
20
270
30
0
11
557.50000000000011
21
0
31
0
0
LINE
5
133
100
AcDbEntity
8
0
100
AcDbLine
10
38.956336975097656
20
140
30
0
11
38.956336975097656
21
200.00000476837158
31
0
0
LINE
5
134
100
AcDbEntity
8
0
100
AcDbLine
10
38.956336975097656
20
200.00000476837158
30
0
11
61.589354276657104
21
200.00000476837158
31
0
0
SPLINE
5
135
100
AcDbEntity
8
0
100
AcDbSpline
70
0
71
2
72
6
73
3
74
0
42
0.000000001
43
0.0000000001
44
0.0000000001
40
0
40
0
40
0
40
1
40
1
40
1
10
61.589354276657104
20
200.00000476837158
30
0
10
67.564796209335327
20
200.00000476837158
30
0
10
70.716232061386108
20
199.42701816558838
30
0
0
SPLINE
5
136
100
AcDbEntity
8
0
100
AcDbSpline
70
0
71
2
72
6
73
3
74
0
42
0.000000001
43
0.0000000001
44
0.0000000001
40
0
40
0
40
0
40
1
40
1
40
1
10
70.716232061386108
20
199.42701816558838
30
0
10
75.136421918869019
20
198.6903190612793
30
0
10
78.124145269393921
20
196.62346839904785
30
0
0
SPLINE
5
137
100
AcDbEntity
8
0
100
AcDbSpline
70
0
71
2
72
6
73
3
74
0
42
0.000000001
43
0.0000000001
44
0.0000000001
40
0
40
0
40
0
40
1
40
1
40
1
10
78.124145269393921
20
196.62346839904785
30
0
10
81.111863851547241
20
194.55661773681641
30
0
10
82.933148145675659
20
190.832200050354
30
0
0
SPLINE
5
138
100
AcDbEntity
8
0
100
AcDbSpline
70
0
71
2
72
6
73
3
74
0
42
0.000000001
43
0.0000000001
44
0.0000000001
40
0
40
0
40
0
40
1
40
1
40
1
10
82.933148145675659
20
190.832200050354
30
0
10
84.754427671432495
20
187.10777759552002
30
0
10
84.754427671432495
20
182.64666080474854
30
0
0
SPLINE
5
139
100
AcDbEntity
8
0
100
AcDbSpline
70
0
71
2
72
6
73
3
74
0
42
0.000000001
43
0.0000000001
44
0.0000000001
40
0
40
0
40
0
40
1
40
1
40
1
10
84.754427671432495
20
182.64666080474854
30
0
10
84.754427671432495
20
174.9931812286377
30
0
10
79.884032011032104
20
169.6930456161499
30
0
0
SPLINE
5
140
100
AcDbEntity
8
0
100
AcDbSpline
70
0
71
2
72
6
73
3
74
0
42
0.000000001
43
0.0000000001
44
0.0000000001
40
0
40
0
40
0
40
1
40
1
40
1
10
79.884032011032104
20
169.6930456161499
30
0
10
75.013636350631714
20
164.39290523529053
30
0
10
62.285126447677612
20
164.39290523529053
30
0
0
LINE
5
141
100
AcDbEntity
8
0
100
AcDbLine
10
62.285126447677612
20
164.39290523529053
30
0
11
46.896311044692993
21
164.39290523529053
31
0
0
LINE
5
142
100
AcDbEntity
8
0
100
AcDbLine
10
46.896311044692993
20
164.39290523529053
30
0
11
46.896311044692993
21
140
31
0
0
LINE
5
143
100
AcDbEntity
8
0
100
AcDbLine
10
46.896311044692993
20
140
30
0
11
38.956336975097656
21
140
31
0
0
LINE
5
144
100
AcDbEntity
8
0
100
AcDbLine
10
46.896311044692993
20
171.47339820861816
30
0
11
62.407907247543335
21
171.47339820861816
31
0
0
SPLINE
5
145
100
AcDbEntity
8
0
100
AcDbSpline
70
0
71
2
72
6
73
3
74
0
42
0.000000001
43
0.0000000001
44
0.0000000001
40
0
40
0
40
0
40
1
40
1
40
1
10
62.407907247543335
20
171.47339820861816
30
0
10
70.102313756942749
20
171.47339820861816
30
0
10
73.335603475570679
20
174.33833599090576
30
0
0
SPLINE
5
146
100
AcDbEntity
8
0
100
AcDbSpline
70
0
71
2
72
6
73
3
74
0
42
0.000000001
43
0.0000000001
44
0.0000000001
40
0
40
0
40
0
40
1
40
1
40
1
10
73.335603475570679
20
174.33833599090576
30
0
10
76.568888425827026
20
177.20327615737915
30
0
10
76.568888425827026
20
182.40109443664551
30
0
0
SPLINE
5
147
100
AcDbEntity
8
0
100
AcDbSpline
70
0
71
2
72
6
73
3
74
0
42
0.000000001
43
0.0000000001
44
0.0000000001
40
0
40
0
40
0
40
1
40
1
40
1
10
76.568888425827026
20
182.40109443664551
30
0
10
76.568888425827026
20
186.16644382476807
30
0
10
74.66575026512146
20
188.84720802307129
30
0
0
SPLINE
5
148
100
AcDbEntity
8
0
100
AcDbSpline
70
0
71
2
72
6
73
3
74
0
42
0.000000001
43
0.0000000001
44
0.0000000001
40
0
40
0
40
0
40
1
40
1
40
1
10
74.66575026512146
20
188.84720802307129
30
0
10
72.762616872787476
20
191.52797222137451
30
0
10
69.652107954025269
20
192.38745212554932
30
0
0
SPLINE
5
149
100
AcDbEntity
8
0
100
AcDbSpline
70
0
71
2
72
6
73
3
74
0
42
0.000000001
43
0.0000000001
44
0.0000000001
40
0
40
0
40
0
40
1
40
1
40
1
10
69.652107954025269
20
192.38745212554932
30
0
10
67.646654844284058
20
192.91951179504395
30
0
10
62.244194746017456
20
192.91951179504395
30
0
0
LINE
5
150
100
AcDbEntity
8
0
100
AcDbLine
10
62.244194746017449
20
192.91951179504395
30
0
11
46.896311044692993
21
192.91951179504395
31
0
0
LINE
5
151
100
AcDbEntity
8
0
100
AcDbLine
10
46.896311044692993
20
192.91951179504395
30
0
11
46.896311044692993
21
171.47339820861816
31
0
0
LWPOLYLINE
5
152
100
AcDbEntity
8
0
100
AcDbPolyline
90
6
70
1
43
0.0
10
94.536150693893433
20
200.00000476837158
10
94.536150693893433
20
140
10
132.02592253684998
20
140
10
132.02592253684998
20
147.08049297332764
10
102.47612357139587
20
147.08049297332764
10
102.47612357139587
20
200.00000476837158
0
LWPOLYLINE
5
153
100
AcDbEntity
8
0
100
AcDbPolyline
90
8
70
1
43
0.0
10
157.93314337730408
20
200.00000476837158
10
134.89085555076599
20
140
10
143.32195639610291
20
140
10
149.91132140159607
20
158.17189693450928
10
175.00000357627869
20
158.17189693450928
10
181.99863791465759
20
140
10
191.0436475276947
20
140
10
166.48703932762146
20
200.00000476837158
0
LINE
5
154
100
AcDbEntity
8
0
100
AcDbLine
10
152.20326781272888
20
164.63847637176514
30
0
11
172.54433989524841
21
164.63847637176514
31
0
0
LINE
5
155
100
AcDbEntity
8
0
100
AcDbLine
10
172.54433989524841
20
164.63847637176514
30
0
11
166.28239989280701
21
181.25511646270752
31
0
0
SPLINE
5
156
100
AcDbEntity
8
0
100
AcDbSpline
70
0
71
2
72
6
73
3
74
0
42
0.000000001
43
0.0000000001
44
0.0000000001
40
0
40
0
40
0
40
1
40
1
40
1
10
166.28239989280701
20
181.25511646270752
30
0
10
163.41745734214783
20
188.82674217224121
30
0
10
162.02591300010681
20
193.6971378326416
30
0
0
SPLINE
5
157
100
AcDbEntity
8
0
100
AcDbSpline
70
0
71
2
72
6
73
3
74
0
42
0.000000001
43
0.0000000001
44
0.0000000001
40
0
40
0
40
0
40
1
40
1
40
1
10
162.02591300010681
20
193.6971378326416
30
0
10
160.87993979454041
20
187.92633533477783
30
0
10
158.79263281822205
20
182.23738193511963
30
0
0
LINE
5
158
100
AcDbEntity
8
0
100
AcDbLine
10
158.79263281822205
20
182.23738193511963
30
0
11
152.20326781272888
21
164.63847637176514
31
0
0
LINE
5
159
100
AcDbEntity
8
0
100
AcDbLine
10
95.07922887802124
20
90
30
0
11
93.743360042572021
21
90
31
0
0
LINE
5
160
100
AcDbEntity
8
0
100
AcDbLine
10
93.743360042572021
20
90
30
0
11
93.681833744049072
21
92.528769969940186
31
0
0
SPLINE
5
161
100
AcDbEntity
8
0
100
AcDbSpline
70
0
71
2
72
6
73
3
74
0
42
0.000000001
43
0.0000000001
44
0.0000000001
40
0
40
0
40
0
40
1
40
1
40
1
10
93.681833744049072
20
92.528769969940186
30
0
10
93.269298076629639
20
91.228311061859131
30
0
10
91.736676692962646
20
90.44750452041626
30
0
0
SPLINE
5
162
100
AcDbEntity
8
0
100
AcDbSpline
70
0
71
2
72
6
73
3
74
0
42
0.000000001
43
0.0000000001
44
0.0000000001
40
0
40
0
40
0
40
1
40
1
40
1
10
91.736676692962646
20
90.44750452041626
30
0
10
90.204055309295654
20
89.666695594787598
30
0
10
88.154213428497314
20
89.666695594787598
30
0
0
SPLINE
5
163
100
AcDbEntity
8
0
100
AcDbSpline
70
0
71
2
72
6
73
3
74
0
42
0.000000001
43
0.0000000001
44
0.0000000001
40
0
40
0
40
0
40
1
40
1
40
1
10
88.154213428497314
20
89.666695594787598
30
0
10
86.129605770111084
20
89.666695594787598
30
0
10
84.612696170806885
20
90.570998191833496
30
0
0
SPLINE
5
164
100
AcDbEntity
8
0
100
AcDbSpline
70
0
71
2
72
6
73
3
74
0
42
0.000000001
43
0.0000000001
44
0.0000000001
40
0
40
0
40
0
40
1
40
1
40
1
10
84.612696170806885
20
90.570998191833496
30
0
10
83.095786571502686
20
91.475300788879395
30
0
10
82.287538051605225
20
93.135180473327637
30
0
0
SPLINE
5
165
100
AcDbEntity
8
0
100
AcDbSpline
70
0
71
2
72
6
73
3
74
0
42
0.000000001
43
0.0000000001
44
0.0000000001
40
0
40
0
40
0
40
1
40
1
40
1
10
82.287538051605225
20
93.135180473327637
30
0
10
81.479284763336182
20
94.795060157775879
30
0
10
81.479284763336182
20
96.980788707733154
30
0
0
LINE
5
166
100
AcDbEntity
8
0
100
AcDbLine
10
81.479284763336182
20
96.980788707733169
30
0
11
81.479284763336182
21
102.2330915927887
31
0
0
SPLINE
5
167
100
AcDbEntity
8
0
100
AcDbSpline
70
0
71
2
72
6
73
3
74
0
42
0.000000001
43
0.0000000001
44
0.0000000001
40
0
40
0
40
0
40
1
40
1
40
1
10
81.479284763336182
20
102.2330915927887
30
0
10
81.479284763336182
20
104.53921794891357
30
0
10
82.3085618019104
20
106.36951088905334
30
0
0
SPLINE
5
168
100
AcDbEntity
8
0
100
AcDbSpline
70
0
71
2
72
6
73
3
74
0
42
0.000000001
43
0.0000000001
44
0.0000000001
40
0
40
0
40
0
40
1
40
1
40
1
10
82.3085618019104
20
106.36951088905334
30
0
10
83.137838840484619
20
108.19980502128601
30
0
10
84.782664775848389
20
109.2623496055603
30
0
0
SPLINE
5
169
100
AcDbEntity
8
0
100
AcDbSpline
70
0
71
2
72
6
73
3
74
0
42
0.000000001
43
0.0000000001
44
0.0000000001
40
0
40
0
40
0
40
1
40
1
40
1
10
84.782664775848389
20
109.2623496055603
30
0
10
86.42749547958374
20
110.3248929977417
30
0
10
88.71016263961792
20
110.3248929977417
30
0
0
SPLINE
5
170
100
AcDbEntity
8
0
100
AcDbSpline
70
0
71
2
72
6
73
3
74
0
42
0.000000001
43
0.0000000001
44
0.0000000001
40
0
40
0
40
0
40
1
40
1
40
1
10
88.71016263961792
20
110.3248929977417
30
0
10
90.923335552215576
20
110.3248929977417
30
0
10
92.336223125457764
20
109.56732511520386
30
0
0
SPLINE
5
171
100
AcDbEntity
8
0
100
AcDbSpline
70
0
71
2
72
6
73
3
74
0
42
0.000000001
43
0.0000000001
44
0.0000000001
40
0
40
0
40
0
40
1
40
1
40
1
10
92.336223125457764
20
109.56732511520386
30
0
10
93.749115467071533
20
108.80975604057312
30
0
10
94.74592924118042
20
107.19015598297119
30
0
0
LINE
5
172
100
AcDbEntity
8
0
100
AcDbLine
10
94.74592924118042
20
107.19015598297118
30
0
11
93.730967044830322
21
106.47972702980042
31
0
0
SPLINE
5
173
100
AcDbEntity
8
0
100
AcDbSpline
70
0
71
2
72
6
73
3
74
0
42
0.000000001
43
0.0000000001
44
0.0000000001
40
0
40
0
40
0
40
1
40
1
40
1
10
93.730967044830322
20
106.47972702980042
30
0
10
92.740352153778076
20
107.76381015777588
30
0
10
91.643946170806885
20
108.35848927497864
30
0
0
SPLINE
5
174
100
AcDbEntity
8
0
100
AcDbSpline
70
0
71
2
72
6
73
3
74
0
42
0.000000001
43
0.0000000001
44
0.0000000001
40
0
40
0
40
0
40
1
40
1
40
1
10
91.643946170806885
20
108.35848927497864
30
0
10
90.547540187835693
20
108.95316958427429
30
0
10
88.71016263961792
20
108.95316958427429
30
0
0
SPLINE
5
175
100
AcDbEntity
8
0
100
AcDbSpline
70
0
71
2
72
6
73
3
74
0
42
0.000000001
43
0.0000000001
44
0.0000000001
40
0
40
0
40
0
40
1
40
1
40
1
10
88.71016263961792
20
108.95316958427429
30
0
10
85.953876972198486
20
108.95316958427429
30
0
10
84.472157955169678
20
107.12730169296265
30
0
0
SPLINE
5
176
100
AcDbEntity
8
0
100
AcDbSpline
70
0
71
2
72
6
73
3
74
0
42
0.000000001
43
0.0000000001
44
0.0000000001
40
0
40
0
40
0
40
1
40
1
40
1
10
84.472157955169678
20
107.12730169296265
30
0
10
82.990438938140869
20
105.301433801651
30
0
10
82.990438938140869
20
102.26097702980042
30
0
0
LINE
5
177
100
AcDbEntity
8
0
100
AcDbLine
10
82.990438938140869
20
102.26097702980042
30
0
11
82.990438938140869
21
97.008676528930664
31
0
0
SPLINE
5
178
100
AcDbEntity
8
0
100
AcDbSpline
70
0
71
2
72
6
73
3
74
0
42
0.000000001
43
0.0000000001
44
0.0000000001
40
0
40
0
40
0
40
1
40
1
40
1
10
82.990438938140869
20
97.008676528930664
30
0
10
82.990438938140869
20
94.232470989227295
30
0
10
84.389607906341553
20
92.635445594787598
30
0
0
SPLINE
5
179
100
AcDbEntity
8
0
100
AcDbSpline
70
0
71
2
72
6
73
3
74
0
42
0.000000001
43
0.0000000001
44
0.0000000001
40
0
40
0
40
0
40
1
40
1
40
1
10
84.389607906341553
20
92.635445594787598
30
0
10
85.788776874542236
20
91.0384202003479
30
0
10
88.348972797393799
20
91.0384202003479
30
0
0
SPLINE
5
180
100
AcDbEntity
8
0
100
AcDbSpline
70
0
71
2
72
6
73
3
74
0
42
0.000000001
43
0.0000000001
44
0.0000000001
40
0
40
0
40
0
40
1
40
1
40
1
10
88.348972797393799
20
91.0384202003479
30
0
10
90.179708003997803
20
91.0384202003479
30
0
10
91.486589908599854
20
91.857073307037354
30
0
0
SPLINE
5
181
100
AcDbEntity
8
0
100
AcDbSpline
70
0
71
2
72
6
73
3
74
0
42
0.000000001
43
0.0000000001
44
0.0000000001
40
0
40
0
40
0
40
1
40
1
40
1
10
91.486589908599854
20
91.857073307037354
30
0
10
92.793467044830322
20
92.675726413726807
30
0
10
93.568074703216553
20
94.146599769592285
30
0
0
LINE
5
182
100
AcDbEntity
8
0
100
AcDbLine
10
93.568074703216567
20
94.146599769592285
30
0
11
93.568074703216553
21
99.198830127716064
31
0
0
LINE
5
183
100
AcDbEntity
8
0
100
AcDbLine
10
93.568074703216553
20
99.198830127716064
30
0
11
87.592952251434326
21
99.198830127716064
31
0
0
LINE
5
184
100
AcDbEntity
8
0
100
AcDbLine
10
87.592952251434326
20
99.198830127716064
30
0
11
87.592952251434326
21
100.57055592536926
31
0
0
LINE
5
185
100
AcDbEntity
8
0
100
AcDbLine
10
87.592952251434326
20
100.57055592536926
30
0
11
95.07922887802124
21
100.57055592536926
31
0
0
LINE
5
186
100
AcDbEntity
8
0
100
AcDbLine
10
95.07922887802124
20
100.57055592536926
30
0
11
95.07922887802124
21
90
31
0
0
SPLINE
5
187
100
AcDbEntity
8
0
100
AcDbSpline
70
0
71
2
72
6
73
3
74
0
42
0.000000001
43
0.0000000001
44
0.0000000001
40
0
40
0
40
0
40
1
40
1
40
1
10
106.35401964187622
20
105.29479384422302
30
0
10
107.17289209365845
20
105.29479384422302
30
0
10
108.08250665664673
20
104.98096704483032
30
0
0
LINE
5
188
100
AcDbEntity
8
0
100
AcDbLine
10
108.08250665664673
20
104.98096704483032
30
0
11
107.85012483596802
21
103.64509582519531
31
0
0
SPLINE
5
189
100
AcDbEntity
8
0
100
AcDbSpline
70
0
71
2
72
6
73
3
74
0
42
0.000000001
43
0.0000000001
44
0.0000000001
40
0
40
0
40
0
40
1
40
1
40
1
10
107.85012483596802
20
103.64509582519531
30
0
10
106.97901964187622
20
103.81196856498718
30
0
10
106.46511793136597
20
103.81196856498718
30
0
0
SPLINE
5
190
100
AcDbEntity
8
0
100
AcDbSpline
70
0
71
2
72
6
73
3
74
0
42
0.000000001
43
0.0000000001
44
0.0000000001
40
0
40
0
40
0
40
1
40
1
40
1
10
106.46511793136597
20
103.81196856498718
30
0
10
105.07480382919312
20
103.81196856498718
30
0
10
104.02177572250366
20
102.82400846481323
30
0
0
SPLINE
5
191
100
AcDbEntity
8
0
100
AcDbSpline
70
0
71
2
72
6
73
3
74
0
42
0.000000001
43
0.0000000001
44
0.0000000001
40
0
40
0
40
0
40
1
40
1
40
1
10
104.02177572250366
20
102.82400846481323
30
0
10
102.96874761581421
20
101.83604836463928
30
0
10
102.49645948410034
20
99.710516929626465
30
0
0
LINE
5
192
100
AcDbEntity
8
0
100
AcDbLine
10
102.49645948410034
20
99.710516929626465
30
0
11
102.49645948410034
21
90
31
0
0
LINE
5
193
100
AcDbEntity
8
0
100
AcDbLine
10
102.49645948410034
20
90
30
0
11
100.98530530929565
21
90
31
0
0
LINE
5
194
100
AcDbEntity
8
0
100
AcDbLine
10
100.98530530929565
20
90
30
0
11
100.98530530929565
21
105.07259130477905
31
0
0
LINE
5
195
100
AcDbEntity
8
0
100
AcDbLine
10
100.98530530929565
20
105.07259130477905
30
0
11
102.25832223892212
21
105.07259130477905
31
0
0
LINE
5
196
100
AcDbEntity
8
0
100
AcDbLine
10
102.25832223892212
20
105.07259130477905
30
0
11
102.35038995742798
21
102.09941506385803
31
0
0
SPLINE
5
197
100
AcDbEntity
8
0
100
AcDbSpline
70
0
71
2
72
6
73
3
74
0
42
0.000000001
43
0.0000000001
44
0.0000000001
40
0
40
0
40
0
40
1
40
1
40
1
10
102.35038995742798
20
102.09941506385803
30
0
10
102.55577325820923
20
103.58312606811523
30
0
10
103.75110387802124
20
104.43896055221558
30
0
0
SPLINE
5
198
100
AcDbEntity
8
0
100
AcDbSpline
70
0
71
2
72
6
73
3
74
0
42
0.000000001
43
0.0000000001
44
0.0000000001
40
0
40
0
40
0
40
1
40
1
40
1
10
103.75110387802124
20
104.43896055221558
30
0
10
104.94643926620483
20
105.29479384422302
30
0
10
106.35401964187622
20
105.29479384422302
30
0
0
SPLINE
5
199
100
AcDbEntity
8
0
100
AcDbSpline
70
0
71
2
72
6
73
3
74
0
42
0.000000001
43
0.0000000001
44
0.0000000001
40
0
40
0
40
0
40
1
40
1
40
1
10
116.67714357376099
20
105.40589570999146
30
0
10
119.22228574752808
20
105.40589570999146
30
0
10
120.49508810043335
20
104.07378673553467
30
0
0
SPLINE
5
200
100
AcDbEntity
8
0
100
AcDbSpline
70
0
71
2
72
6
73
3
74
0
42
0.000000001
43
0.0000000001
44
0.0000000001
40
0
40
0
40
0
40
1
40
1
40
1
10
120.49508810043335
20
104.07378673553467
30
0
10
121.76788091659546
20
102.74167895317078
30
0
10
121.76788091659546
20
100.39881348609924
30
0
0
LINE
5
201
100
AcDbEntity
8
0
100
AcDbLine
10
121.76788091659546
20
100.39881348609924
30
0
11
121.76788091659546
21
90
31
0
0
LINE
5
202
100
AcDbEntity
8
0
100
AcDbLine
10
121.76788091659546
20
90
30
0
11
120.43024778366089
21
90
31
0
0
LINE
5
203
100
AcDbEntity
8
0
100
AcDbLine
10
120.43024778366089
20
90
30
0
11
120.38819074630737
21
92.112252712249756
31
0
0
SPLINE
5
204
100
AcDbEntity
8
0
100
AcDbSpline
70
0
71
2
72
6
73
3
74
0
42
0.000000001
43
0.0000000001
44
0.0000000001
40
0
40
0
40
0
40
1
40
1
40
1
10
120.38819074630737
20
92.112252712249756
30
0
10
119.79948759078979
20
90.856056213378906
30
0
10
118.47954511642456
20
90.261375904083252
30
0
0
SPLINE
5
205
100
AcDbEntity
8
0
100
AcDbSpline
70
0
71
2
72
6
73
3
74
0
42
0.000000001
43
0.0000000001
44
0.0000000001
40
0
40
0
40
0
40
1
40
1
40
1
10
118.47954511642456
20
90.261375904083252
30
0
10
117.15961217880249
20
89.666695594787598
30
0
10
115.37092924118042
20
89.666695594787598
30
0
0
SPLINE
5
206
100
AcDbEntity
8
0
100
AcDbSpline
70
0
71
2
72
6
73
3
74
0
42
0.000000001
43
0.0000000001
44
0.0000000001
40
0
40
0
40
0
40
1
40
1
40
1
10
115.37092924118042
20
89.666695594787598
30
0
10
113.29054594039917
20
89.666695594787598
30
0
10
111.88252210617065
20
90.837686061859131
30
0
0
SPLINE
5
207
100
AcDbEntity
8
0
100
AcDbSpline
70
0
71
2
72
6
73
3
74
0
42
0.000000001
43
0.0000000001
44
0.0000000001
40
0
40
0
40
0
40
1
40
1
40
1
10
111.88252210617065
20
90.837686061859131
30
0
10
110.4745078086853
20
92.008676528930664
30
0
10
110.4745078086853
20
93.979284763336182
30
0
0
LINE
5
208
100
AcDbEntity
8
0
100
AcDbLine
10
110.4745078086853
20
93.979284763336182
30
0
11
110.4745078086853
21
94.785323143005371
31
0
0
SPLINE
5
209
100
AcDbEntity
8
0
100
AcDbSpline
70
0
71
2
72
6
73
3
74
0
42
0.000000001
43
0.0000000001
44
0.0000000001
40
0
40
0
40
0
40
1
40
1
40
1
10
110.4745078086853
20
94.785323143005371
30
0
10
110.4745078086853
20
96.824097633361816
30
0
10
112.12110280990601
20
98.044219017028809
30
0
0
SPLINE
5
210
100
AcDbEntity
8
0
100
AcDbSpline
70
0
71
2
72
6
73
3
74
0
42
0.000000001
43
0.0000000001
44
0.0000000001
40
0
40
0
40
0
40
1
40
1
40
1
10
112.12110280990601
20
98.044219017028809
30
0
10
113.76770734786987
20
99.264342784881592
30
0
10
116.4544939994812
20
99.264342784881592
30
0
0
LINE
5
211
100
AcDbEntity
8
0
100
AcDbLine
10
116.4544939994812
20
99.264342784881592
30
0
11
120.25672674179077
21
99.264342784881592
31
0
0
LINE
5
212
100
AcDbEntity
8
0
100
AcDbLine
10
120.25672674179077
20
99.264342784881592
30
0
11
120.25672674179077
21
100.42670011520386
31
0
0
SPLINE
5
213
100
AcDbEntity
8
0
100
AcDbSpline
70
0
71
2
72
6
73
3
74
0
42
0.000000001
43
0.0000000001
44
0.0000000001
40
0
40
0
40
0
40
1
40
1
40
1
10
120.25672674179077
20
100.42670011520386
30
0
10
120.25672674179077
20
104.03417110443115
30
0
10
116.62136793136597
20
104.03417110443115
30
0
0
SPLINE
5
214
100
AcDbEntity
8
0
100
AcDbSpline
70
0
71
2
72
6
73
3
74
0
42
0.000000001
43
0.0000000001
44
0.0000000001
40
0
40
0
40
0
40
1
40
1
40
1
10
116.62136793136597
20
104.03417110443115
30
0
10
115.39438962936401
20
104.03417110443115
30
0
10
114.38805818557739
20
103.72145056724548
30
0
0
SPLINE
5
215
100
AcDbEntity
8
0
100
AcDbSpline
70
0
71
2
72
6
73
3
74
0
42
0.000000001
43
0.0000000001
44
0.0000000001
40
0
40
0
40
0
40
1
40
1
40
1
10
114.38805818557739
20
103.72145056724548
30
0
10
113.38172674179077
20
103.40872883796692
30
0
10
111.99716806411743
20
102.78372883796692
30
0
0
LINE
5
216
100
AcDbEntity
8
0
100
AcDbLine
10
111.99716806411743
20
102.78372883796693
30
0
11
111.47485494613647
21
103.85047793388367
31
0
0
SPLINE
5
217
100
AcDbEntity
8
0
100
AcDbSpline
70
0
71
2
72
6
73
3
74
0
42
0.000000001
43
0.0000000001
44
0.0000000001
40
0
40
0
40
0
40
1
40
1
40
1
10
111.47485494613647
20
103.85047793388367
30
0
10
114.03549909591675
20
105.40589570999146
30
0
10
116.67714357376099
20
105.40589570999146
30
0
0
SPLINE
5
218
100
AcDbEntity
8
0
100
AcDbSpline
70
0
71
2
72
6
73
3
74
0
42
0.000000001
43
0.0000000001
44
0.0000000001
40
0
40
0
40
0
40
1
40
1
40
1
10
115.53780317306519
20
90.955204963684082
30
0
10
118.60039472579956
20
90.955204963684082
30
0
10
120.25672674179077
20
93.491501808166504
30
0
0
LINE
5
219
100
AcDbEntity
8
0
100
AcDbLine
10
120.25672674179077
20
93.491501808166504
30
0
11
120.25672674179077
21
97.947945594787598
31
0
0
LINE
5
220
100
AcDbEntity
8
0
100
AcDbLine
10
120.25672674179077
20
97.947945594787598
30
0
11
116.53815507888794
21
97.947945594787598
31
0
0
SPLINE
5
221
100
AcDbEntity
8
0
100
AcDbSpline
70
0
71
2
72
6
73
3
74
0
42
0.000000001
43
0.0000000001
44
0.0000000001
40
0
40
0
40
0
40
1
40
1
40
1
10
116.53815507888794
20
97.947945594787598
30
0
10
114.40465688705444
20
97.947945594787598
30
0
10
113.19515943527222
20
97.098751068115234
30
0
0
SPLINE
5
222
100
AcDbEntity
8
0
100
AcDbSpline
70
0
71
2
72
6
73
3
74
0
42
0.000000001
43
0.0000000001
44
0.0000000001
40
0
40
0
40
0
40
1
40
1
40
1
10
113.19515943527222
20
97.098751068115234
30
0
10
111.98566198348999
20
96.249558925628662
30
0
10
111.98566198348999
20
94.702107906341553
30
0
0
LINE
5
223
100
AcDbEntity
8
0
100
AcDbLine
10
111.98566198348999
20
94.702107906341553
30
0
11
111.98566198348999
21
94.035055637359619
31
0
0
SPLINE
5
224
100
AcDbEntity
8
0
100
AcDbSpline
70
0
71
2
72
6
73
3
74
0
42
0.000000001
43
0.0000000001
44
0.0000000001
40
0
40
0
40
0
40
1
40
1
40
1
10
111.98566198348999
20
94.035055637359619
30
0
10
111.98566198348999
20
92.6133131980896
30
0
10
112.98070192337036
20
91.784260272979736
30
0
0
SPLINE
5
225
100
AcDbEntity
8
0
100
AcDbSpline
70
0
71
2
72
6
73
3
74
0
42
0.000000001
43
0.0000000001
44
0.0000000001
40
0
40
0
40
0
40
1
40
1
40
1
10
112.98070192337036
20
91.784260272979736
30
0
10
113.97574186325073
20
90.955204963684082
30
0
10
115.53780317306519
20
90.955204963684082
30
0
0
SPLINE
5
226
100
AcDbEntity
8
0
100
AcDbSpline
70
0
71
2
72
6
73
3
74
0
42
0.000000001
43
0.0000000001
44
0.0000000001
40
0
40
0
40
0
40
1
40
1
40
1
10
128.62251996994019
20
84.10853385925293
30
0
10
127.80497312545776
20
84.10853385925293
30
0
10
126.977698802948
20
84.466626644134521
30
0
0
LINE
5
227
100
AcDbEntity
8
0
100
AcDbLine
10
126.977698802948
20
84.466626644134521
30
0
11
127.21228361129761
21
85.647573471069336
31
0
0
SPLINE
5
228
100
AcDbEntity
8
0
100
AcDbSpline
70
0
71
2
72
6
73
3
74
0
42
0.000000001
43
0.0000000001
44
0.0000000001
40
0
40
0
40
0
40
1
40
1
40
1
10
127.21228361129761
20
85.647573471069336
30
0
10
128.10774564743042
20
85.424928665161133
30
0
10
128.67829084396362
20
85.424928665161133
30
0
0
SPLINE
5
229
100
AcDbEntity
8
0
100
AcDbSpline
70
0
71
2
72
6
73
3
74
0
42
0.000000001
43
0.0000000001
44
0.0000000001
40
0
40
0
40
0
40
1
40
1
40
1
10
128.67829084396362
20
85.424928665161133
30
0
10
129.58082914352417
20
85.424928665161133
30
0
10
130.1690936088562
20
86.025583744049072
30
0
0
SPLINE
5
230
100
AcDbEntity
8
0
100
AcDbSpline
70
0
71
2
72
6
73
3
74
0
42
0.000000001
43
0.0000000001
44
0.0000000001
40
0
40
0
40
0
40
1
40
1
40
1
10
130.1690936088562
20
86.025583744049072
30
0
10
130.75734853744507
20
86.626238822937012
30
0
10
131.48947477340698
20
88.732295036315918
30
0
0
LINE
5
231
100
AcDbEntity
8
0
100
AcDbLine
10
131.48947477340698
20
88.732295036315904
30
0
11
132.03523397445679
21
90
31
0
0
LINE
5
232
100
AcDbEntity
8
0
100
AcDbLine
10
132.03523397445679
20
90
30
0
11
131.67670011520386
21
90
31
0
0
LINE
5
233
100
AcDbEntity
8
0
100
AcDbLine
10
131.67670011520386
20
90
30
0
11
126.115882396698
21
105.07259130477905
31
0
0
LINE
5
234
100
AcDbEntity
8
0
100
AcDbLine
10
126.115882396698
20
105.07259130477905
30
0
11
127.59915113449097
21
105.07259130477905
31
0
0
LINE
5
235
100
AcDbEntity
8
0
100
AcDbLine
10
127.59915113449097
20
105.07259130477905
30
0
11
132.52789258956909
21
91.261508464813232
31
0
0
LINE
5
236
100
AcDbEntity
8
0
100
AcDbLine
10
132.52789258956909
20
91.261508464813232
30
0
11
137.08348035812378
21
105.07259130477905
31
0
0
LINE
5
237
100
AcDbEntity
8
0
100
AcDbLine
10
137.08348035812378
20
105.07259130477905
30
0
11
138.52116346359253
21
105.07259130477905
31
0
0
LINE
5
238
100
AcDbEntity
8
0
100
AcDbLine
10
138.52116346359253
20
105.07259130477905
30
0
11
132.88996458053589
21
88.411827087402344
31
0
0
SPLINE
5
239
100
AcDbEntity
8
0
100
AcDbSpline
70
0
71
2
72
6
73
3
74
0
42
0.000000001
43
0.0000000001
44
0.0000000001
40
0
40
0
40
0
40
1
40
1
40
1
10
132.88996458053589
20
88.411827087402344
30
0
10
132.29638814926147
20
86.687324047088623
30
0
10
131.6497015953064
20
85.73211669921875
30
0
0
SPLINE
5
240
100
AcDbEntity
8
0
100
AcDbSpline
70
0
71
2
72
6
73
3
74
0
42
0.000000001
43
0.0000000001
44
0.0000000001
40
0
40
0
40
0
40
1
40
1
40
1
10
131.6497015953064
20
85.73211669921875
30
0
10
131.00300550460815
20
84.776914119720459
30
0
10
130.28859853744507
20
84.442722797393799
30
0
0
SPLINE
5
241
100
AcDbEntity
8
0
100
AcDbSpline
70
0
71
2
72
6
73
3
74
0
42
0.000000001
43
0.0000000001
44
0.0000000001
40
0
40
0
40
0
40
1
40
1
40
1
10
130.28859853744507
20
84.442722797393799
30
0
10
129.57419157028198
20
84.10853385925293
30
0
10
128.62251996994019
20
84.10853385925293
30
0
0
ENDSEC
0
SECTION
2
OBJECTS
0
DICTIONARY
5
C
100
AcDbDictionary
3
ACAD_GROUP
350
D
3
ACAD_MLINESTYLE
350
17
0
DICTIONARY
5
D
100
AcDbDictionary
0
DICTIONARY
5
1A
330
C
100
AcDbDictionary
0
DICTIONARY
5
17
100
AcDbDictionary
0
ENDSEC
0
EOF
