0
SECTION
2
HEADER
9
$INSUNITS
70
4
9
$ACADVER
1
AC1014
9
$HANDSEED
5
FFFF
0
ENDSEC
0
SECTION
2
TABLES
0
TABLE
2
VPORT
5
8
100
AcDbSymbolTable
0
ENDTAB
0
TABLE
2
LTYPE
5
5
100
AcDbSymbolTable
0
LTYPE
5
14
100
AcDbSymbolTableRecord
100
AcDbLinetypeTableRecord
2
BYBLOCK
70
0
0
LTYPE
5
15
100
AcDbSymbolTableRecord
100
AcDbLinetypeTableRecord
2
BYLAYER
70
0
0
ENDTAB
0
TABLE
2
LAYER
5
2
100
AcDbSymbolTable
70
2
0
LAYER
5
50
100
AcDbSymbolTableRecord
100
AcDbLayerTableRecord
2
0
70
0
6
CONTINUOUS
0
ENDTAB
0
TABLE
2
STYLE
5
3
100
AcDbSymbolTable
70
1
0
STYLE
5
11
100
AcDbSymbolTableRecord
100
AcDbTextStyleTableRecord
2
STANDARD
70
0
0
ENDTAB
0
TABLE
2
VIEW
5
6
100
AcDbSymbolTable
70
0
0
ENDTAB
0
TABLE
2
UCS
5
7
100
AcDbSymbolTable
70
0
0
ENDTAB
0
TABLE
2
APPID
5
9
100
AcDbSymbolTable
70
2
0
APPID
5
12
100
AcDbSymbolTableRecord
100
AcDbRegAppTableRecord
2
ACAD
70
0
0
ENDTAB
0
TABLE
2
DIMSTYLE
5
A
100
AcDbSymbolTable
70
1
0
ENDTAB
0
TABLE
2
BLOCK_RECORD
5
1
100
AcDbSymbolTable
70
1
0
BLOCK_RECORD
5
1F
100
AcDbSymbolTableRecord
100
AcDbBlockTableRecord
2
*MODEL_SPACE
0
BLOCK_RECORD
5
1B
100
AcDbSymbolTableRecord
100
AcDbBlockTableRecord
2
*PAPER_SPACE
0
ENDTAB
0
ENDSEC
0
SECTION
2
BLOCKS
0
BLOCK
5
20
100
AcDbEntity
100
AcDbBlockBegin
2
*MODEL_SPACE
0
ENDBLK
5
21
100
AcDbEntity
100
AcDbBlockEnd
0
BLOCK
5
1C
100
AcDbEntity
100
AcDbBlockBegin
2
*PAPER_SPACE
0
ENDBLK
5
1D
100
AcDbEntity
100
AcDbBlockEnd
0
ENDSEC
0
SECTION
2
ENTITIES
0
LINE
5
100
100
AcDbEntity
8
0
100
AcDbLine
10
-237.5
20
82.999999999999986
30
0
11
237.5
21
82.999999999999986
31
0
0
LINE
5
101
100
AcDbEntity
8
0
100
AcDbLine
10
237.5
20
82.999999999999986
30
0
11
237.5
21
-83
31
0
0
LINE
5
102
100
AcDbEntity
8
0
100
AcDbLine
10
237.5
20
-83
30
0
11
-237.50000000000003
21
-83
31
0
0
LINE
5
103
100
AcDbEntity
8
0
100
AcDbLine
10
-237.50000000000003
20
-83
30
0
11
-237.5
21
82.999999999999986
31
0
0
LINE
5
104
100
AcDbEntity
8
0
100
AcDbLine
10
-237.5
20
82.999999999999986
30
0
11
237.5
21
-83
31
0
0
LINE
5
105
100
AcDbEntity
8
0
100
AcDbLine
10
237.5
20
82.999999999999986
30
0
11
-237.50000000000003
21
-83
31
0
0
LWPOLYLINE
5
106
100
AcDbEntity
8
0
100
AcDbPolyline
90
4
70
1
43
0.0
10
-158.87079843740315
20
76.273028152490724
10
-230.6904782992699
20
76.273028152490724
10
-230.6904782992699
20
52.747230316657614
10
-158.87079843740315
20
52.747230316657614
0
LWPOLYLINE
5
107
100
AcDbEntity
8
0
100
AcDbPolyline
90
4
70
1
43
0.0
10
-230.6904782992699
20
46.380512750524559
10
-158.87079843740315
20
46.380512750524559
10
-158.87079843740315
20
20.603070897400499
10
-230.6904782992699
20
20.603070897400499
0
LWPOLYLINE
5
108
100
AcDbEntity
8
0
100
AcDbPolyline
90
4
70
1
43
0.0
10
-121.01352774408461
20
20.603070897400499
10
-146.14512901494047
20
20.603070897400499
10
-146.14512901494047
20
62.703217789359442
10
-121.01352774408461
20
62.703217789359442
0
LWPOLYLINE
5
109
100
AcDbEntity
8
0
100
AcDbPolyline
90
4
70
1
43
0.0
10
-182.42783813445425
20
-0.37543705603375166
10
-230.6904782992699
20
-0.37543705603375166
10
-230.6904782992699
20
-13.024454914212873
10
-182.42783813445425
20
-13.024454914212873
0
CIRCLE
5
110
100
AcDbEntity
8
0
100
AcDbCircle
10
3.3729131959675325
20
49.439916633786794
30
0
40
9.5
210
0
220
0
230
1
0
CIRCLE
5
111
100
AcDbEntity
8
0
100
AcDbCircle
10
3.3729131959675325
20
49.439916633786794
30
0
40
6.0000000000000009
210
0
220
0
230
1
0
CIRCLE
5
112
100
AcDbEntity
8
0
100
AcDbCircle
10
33.249374404281568
20
49.439916633786794
30
0
40
6.0000000000000009
210
0
220
0
230
1
0
CIRCLE
5
113
100
AcDbEntity
8
0
100
AcDbCircle
10
33.249374404281568
20
49.439916633786794
30
0
40
9.5
210
0
220
0
230
1
0
CIRCLE
5
114
100
AcDbEntity
8
0
100
AcDbCircle
10
63.700382943524673
20
49.439916633786794
30
0
40
9.5
210
0
220
0
230
1
0
CIRCLE
5
115
100
AcDbEntity
8
0
100
AcDbCircle
10
63.700382943524673
20
49.439916633786794
30
0
40
6.0000000000000009
210
0
220
0
230
1
0
CIRCLE
5
116
100
AcDbEntity
8
0
100
AcDbCircle
10
93.576844151838699
20
49.439916633786794
30
0
40
9.5
210
0
220
0
230
1
0
CIRCLE
5
117
100
AcDbEntity
8
0
100
AcDbCircle
10
93.576844151838699
20
49.439916633786794
30
0
40
6.0000000000000009
210
0
220
0
230
1
0
CIRCLE
5
118
100
AcDbEntity
8
0
100
AcDbCircle
10
-26.695063789322866
20
49.439916633786794
30
0
40
9.5
210
0
220
0
230
1
0
CIRCLE
5
119
100
AcDbEntity
8
0
100
AcDbCircle
10
-26.695063789322866
20
49.439916633786794
30
0
40
6.0000000000000009
210
0
220
0
230
1
0
CIRCLE
5
120
100
AcDbEntity
8
0
100
AcDbCircle
10
-57.146072328565971
20
49.439916633786794
30
0
40
6.0000000000000009
210
0
220
0
230
1
0
CIRCLE
5
121
100
AcDbEntity
8
0
100
AcDbCircle
10
-57.146072328565971
20
49.439916633786794
30
0
40
9.5
210
0
220
0
230
1
0
CIRCLE
5
122
100
AcDbEntity
8
0
100
AcDbCircle
10
-87.022533536880005
20
49.439916633786794
30
0
40
6.0000000000000009
210
0
220
0
230
1
0
CIRCLE
5
123
100
AcDbEntity
8
0
100
AcDbCircle
10
-87.022533536880005
20
49.439916633786794
30
0
40
9.5
210
0
220
0
230
1
0
CIRCLE
5
124
100
AcDbEntity
8
0
100
AcDbCircle
10
123.83633691410546
20
49.439916633786794
30
0
40
6.0000000000000009
210
0
220
0
230
1
0
CIRCLE
5
125
100
AcDbEntity
8
0
100
AcDbCircle
10
123.83633691410546
20
49.439916633786794
30
0
40
9.5
210
0
220
0
230
1
0
CIRCLE
5
126
100
AcDbEntity
8
0
100
AcDbCircle
10
194.69717439536305
20
38.715033123109976
30
0
40
15
210
0
220
0
230
1
0
CIRCLE
5
127
100
AcDbEntity
8
0
100
AcDbCircle
10
194.69717439536305
20
38.715033123109976
30
0
40
11.749999999999998
210
0
220
0
230
1
0
LWPOLYLINE
5
128
100
AcDbEntity
8
0
100
AcDbPolyline
90
4
70
1
43
0.0
10
230.5324678303719
20
76.273028152490724
10
158.94399086002772
20
76.273028152490724
10
158.94399086002772
20
64.229493457917954
10
230.5324678303719
20
64.229493457917954
0
LWPOLYLINE
5
129
100
AcDbEntity
8
0
100
AcDbPolyline
90
4
70
1
43
0.0
10
223.40754832147499
20
5.1944460984872265
10
-173.89153476986618
20
5.1944460984872265
10
-173.89153476986615
20
-83
10
223.40754832147502
20
-83
0
ENDSEC
0
SECTION
2
OBJECTS
0
DICTIONARY
5
C
100
AcDbDictionary
3
ACAD_GROUP
350
D
3
ACAD_MLINESTYLE
350
17
0
DICTIONARY
5
D
100
AcDbDictionary
0
DICTIONARY
5
1A
330
C
100
AcDbDictionary
0
DICTIONARY
5
17
100
AcDbDictionary
0
ENDSEC
0
EOF
