0
SECTION
2
HEADER
9
$INSUNITS
70
4
9
$ACADVER
1
AC1014
9
$HANDSEED
5
FFFF
0
ENDSEC
0
SECTION
2
TABLES
0
TABLE
2
VPORT
5
8
100
AcDbSymbolTable
0
ENDTAB
0
TABLE
2
LTYPE
5
5
100
AcDbSymbolTable
0
LTYPE
5
14
100
AcDbSymbolTableRecord
100
AcDbLinetypeTableRecord
2
BYBLOCK
70
0
0
LTYPE
5
15
100
AcDbSymbolTableRecord
100
AcDbLinetypeTableRecord
2
BYLAYER
70
0
0
ENDTAB
0
TABLE
2
LAYER
5
2
100
AcDbSymbolTable
70
2
0
LAYER
5
50
100
AcDbSymbolTableRecord
100
AcDbLayerTableRecord
2
0
70
0
6
CONTINUOUS
0
ENDTAB
0
TABLE
2
STYLE
5
3
100
AcDbSymbolTable
70
1
0
STYLE
5
11
100
AcDbSymbolTableRecord
100
AcDbTextStyleTableRecord
2
STANDARD
70
0
0
ENDTAB
0
TABLE
2
VIEW
5
6
100
AcDbSymbolTable
70
0
0
ENDTAB
0
TABLE
2
UCS
5
7
100
AcDbSymbolTable
70
0
0
ENDTAB
0
TABLE
2
APPID
5
9
100
AcDbSymbolTable
70
2
0
APPID
5
12
100
AcDbSymbolTableRecord
100
AcDbRegAppTableRecord
2
ACAD
70
0
0
ENDTAB
0
TABLE
2
DIMSTYLE
5
A
100
AcDbSymbolTable
70
1
0
ENDTAB
0
TABLE
2
BLOCK_RECORD
5
1
100
AcDbSymbolTable
70
1
0
BLOCK_RECORD
5
1F
100
AcDbSymbolTableRecord
100
AcDbBlockTableRecord
2
*MODEL_SPACE
0
BLOCK_RECORD
5
1B
100
AcDbSymbolTableRecord
100
AcDbBlockTableRecord
2
*PAPER_SPACE
0
ENDTAB
0
ENDSEC
0
SECTION
2
BLOCKS
0
BLOCK
5
20
100
AcDbEntity
100
AcDbBlockBegin
2
*MODEL_SPACE
0
ENDBLK
5
21
100
AcDbEntity
100
AcDbBlockEnd
0
BLOCK
5
1C
100
AcDbEntity
100
AcDbBlockBegin
2
*PAPER_SPACE
0
ENDBLK
5
1D
100
AcDbEntity
100
AcDbBlockEnd
0
ENDSEC
0
SECTION
2
ENTITIES
0
LINE
5
100
100
AcDbEntity
8
0
100
AcDbLine
10
-3.0000000000000004
20
-7.811255707796958
30
0
11
0
21
-7.811255707796958
31
0
0
LINE
5
101
100
AcDbEntity
8
0
100
AcDbLine
10
0
20
-7.811255707796958
30
0
11
0
21
3.0000000000000027
31
0
0
LINE
5
102
100
AcDbEntity
8
0
100
AcDbLine
10
0
20
3.0000000000000027
30
0
11
-30.947000000000013
21
3.0000000000000004
31
0
0
LINE
5
103
100
AcDbEntity
8
0
100
AcDbLine
10
-30.947000000000013
20
3.0000000000000004
30
0
11
-30.947000000000031
21
0
31
0
0
LINE
5
104
100
AcDbEntity
8
0
100
AcDbLine
10
-30.947000000000031
20
0
30
0
11
-60.946999999999996
21
2.2204460492503131e-15
31
0
0
LINE
5
105
100
AcDbEntity
8
0
100
AcDbLine
10
-60.946999999999996
20
2.2204460492503131e-15
30
0
11
-60.946999999999996
21
3.0000000000000027
31
0
0
LINE
5
106
100
AcDbEntity
8
0
100
AcDbLine
10
-60.946999999999996
20
3.0000000000000027
30
0
11
-88.47350000000003
21
3.0000000000000027
31
0
0
LINE
5
107
100
AcDbEntity
8
0
100
AcDbLine
10
-88.47350000000003
20
3.0000000000000027
30
0
11
-88.47350000000003
21
2.2204460492503131e-15
31
0
0
LINE
5
108
100
AcDbEntity
8
0
100
AcDbLine
10
-88.47350000000003
20
2.2204460492503131e-15
30
0
11
-118.47350000000003
21
0
31
0
0
LINE
5
109
100
AcDbEntity
8
0
100
AcDbLine
10
-118.47350000000003
20
0
30
0
11
-118.47350000000003
21
3.0000000000000004
31
0
0
LINE
5
110
100
AcDbEntity
8
0
100
AcDbLine
10
-118.47350000000003
20
3.0000000000000004
30
0
11
-146
21
3.0000000000000027
31
0
0
LINE
5
111
100
AcDbEntity
8
0
100
AcDbLine
10
-146
20
3.0000000000000027
30
0
11
-146
21
2.2204460492503131e-15
31
0
0
LINE
5
112
100
AcDbEntity
8
0
100
AcDbLine
10
-146
20
2.2204460492503131e-15
30
0
11
-176
21
0
31
0
0
LINE
5
113
100
AcDbEntity
8
0
100
AcDbLine
10
-176
20
0
30
0
11
-176
21
3.0000000000000004
31
0
0
LINE
5
114
100
AcDbEntity
8
0
100
AcDbLine
10
-176
20
3.0000000000000004
30
0
11
-203.5265
21
3.0000000000000027
31
0
0
LINE
5
115
100
AcDbEntity
8
0
100
AcDbLine
10
-203.5265
20
3.0000000000000027
30
0
11
-203.5265
21
2.2204460492503131e-15
31
0
0
LINE
5
116
100
AcDbEntity
8
0
100
AcDbLine
10
-203.5265
20
2.2204460492503131e-15
30
0
11
-233.5265
21
0
31
0
0
LINE
5
117
100
AcDbEntity
8
0
100
AcDbLine
10
-233.5265
20
0
30
0
11
-233.5265
21
3.0000000000000004
31
0
0
LINE
5
118
100
AcDbEntity
8
0
100
AcDbLine
10
-233.5265
20
3.0000000000000004
30
0
11
-261.053
21
3.0000000000000027
31
0
0
LINE
5
119
100
AcDbEntity
8
0
100
AcDbLine
10
-261.053
20
3.0000000000000027
30
0
11
-261.053
21
2.2204460492503131e-15
31
0
0
LINE
5
120
100
AcDbEntity
8
0
100
AcDbLine
10
-261.053
20
2.2204460492503131e-15
30
0
11
-291.053
21
2.2204460492503131e-15
31
0
0
LINE
5
121
100
AcDbEntity
8
0
100
AcDbLine
10
-291.053
20
2.2204460492503131e-15
30
0
11
-291.053
21
3.0000000000000027
31
0
0
LINE
5
122
100
AcDbEntity
8
0
100
AcDbLine
10
-291.053
20
3.0000000000000027
30
0
11
-321.99999999999994
21
3.0000000000000027
31
0
0
LINE
5
123
100
AcDbEntity
8
0
100
AcDbLine
10
-321.99999999999994
20
3.0000000000000027
30
0
11
-321.99999999999994
21
-7.811255707796958
31
0
0
LINE
5
124
100
AcDbEntity
8
0
100
AcDbLine
10
-321.99999999999994
20
-7.811255707796958
30
0
11
-318.99999999999994
21
-7.811255707796958
31
0
0
LINE
5
125
100
AcDbEntity
8
0
100
AcDbLine
10
-318.99999999999994
20
-7.811255707796958
30
0
11
-318.99999999999994
21
-14.811255707796956
31
0
0
LINE
5
126
100
AcDbEntity
8
0
100
AcDbLine
10
-318.99999999999994
20
-14.811255707796956
30
0
11
-321.99999999999994
21
-14.81125570779696
31
0
0
LINE
5
127
100
AcDbEntity
8
0
100
AcDbLine
10
-321.99999999999994
20
-14.81125570779696
30
0
11
-321.99999999999994
21
-29.81125570779696
31
0
0
LINE
5
128
100
AcDbEntity
8
0
100
AcDbLine
10
-321.99999999999994
20
-29.81125570779696
30
0
11
-318.99999999999994
21
-29.811255707796956
31
0
0
LINE
5
129
100
AcDbEntity
8
0
100
AcDbLine
10
-318.99999999999994
20
-29.811255707796956
30
0
11
-318.99999999999994
21
-37.62251141559392
31
0
0
LINE
5
130
100
AcDbEntity
8
0
100
AcDbLine
10
-318.99999999999994
20
-37.62251141559392
30
0
11
-309.25019568732228
21
-37.62251141559392
31
0
0
LINE
5
131
100
AcDbEntity
8
0
100
AcDbLine
10
-309.25019568732228
20
-37.62251141559392
30
0
11
-309.25019568732228
21
-36.800369274743403
31
0
0
SPLINE
5
132
100
AcDbEntity
8
0
100
AcDbSpline
70
4
71
5
72
16
73
10
74
0
42
0.000000001
43
0.0000000001
44
0.0000000001
40
0
40
0
40
0
40
0
40
0
40
0
40
0.20000000000000001
40
0.40000000000000002
40
0.60000000000000009
40
0.80000000000000004
40
1
40
1
40
1
40
1
40
1
40
1
41
1
41
1
41
1
41
1
41
1
41
1
41
1
41
1
41
1
41
1
10
-309.25019568732228
20
-36.800369274743403
30
0
10
-306.89877802387423
20
-33.534467813376764
30
0
10
-301.18134880571068
20
-27.659956579082664
30
0
10
-289.56413304880977
20
-20.818271299085861
30
0
10
-268.80680700402684
20
-15.075667053390996
30
0
10
-236.84211442305113
20
-11.526662020686619
30
0
10
-208.06107984772729
20
-10.291819429116902
30
0
10
-185.07140292186986
20
-9.8392426486774962
30
0
10
-169.12687188641794
20
-9.7103710060191908
30
0
10
-161
20
-9.6891501038195713
30
0
0
SPLINE
5
133
100
AcDbEntity
8
0
100
AcDbSpline
70
4
71
5
72
16
73
10
74
0
42
0.000000001
43
0.0000000001
44
0.0000000001
40
0
40
0
40
0
40
0
40
0
40
0
40
0.20000000000000001
40
0.40000000000000002
40
0.60000000000000009
40
0.80000000000000004
40
1
40
1
40
1
40
1
40
1
40
1
41
1
41
1
41
1
41
1
41
1
41
1
41
1
41
1
41
1
41
1
10
-12.749804312677782
20
-36.800369274743403
30
0
10
-15.101221976125778
20
-33.534467813376764
30
0
10
-20.81865119428933
20
-27.659956579082664
30
0
10
-32.435866951190242
20
-20.818271299085861
30
0
10
-53.193192995973178
20
-15.075667053390996
30
0
10
-85.1578855769489
20
-11.526662020686619
30
0
10
-113.93892015227273
20
-10.291819429116902
30
0
10
-136.92859707813017
20
-9.8392426486774962
30
0
10
-152.87312811358208
20
-9.7103710060191908
30
0
10
-161
20
-9.6891501038195713
30
0
0
LINE
5
134
100
AcDbEntity
8
0
100
AcDbLine
10
-12.749804312677782
20
-36.800369274743403
30
0
11
-12.749804312677782
21
-37.62251141559392
31
0
0
LINE
5
135
100
AcDbEntity
8
0
100
AcDbLine
10
-12.749804312677782
20
-37.62251141559392
30
0
11
-3.0000000000000004
21
-37.62251141559392
31
0
0
LINE
5
136
100
AcDbEntity
8
0
100
AcDbLine
10
-3.0000000000000004
20
-37.62251141559392
30
0
11
-3.0000000000000004
21
-29.811255707796956
31
0
0
LINE
5
137
100
AcDbEntity
8
0
100
AcDbLine
10
-3.0000000000000004
20
-29.811255707796956
30
0
11
0
21
-29.81125570779696
31
0
0
LINE
5
138
100
AcDbEntity
8
0
100
AcDbLine
10
0
20
-29.81125570779696
30
0
11
0
21
-14.81125570779696
31
0
0
LINE
5
139
100
AcDbEntity
8
0
100
AcDbLine
10
0
20
-14.81125570779696
30
0
11
-3.0000000000000004
21
-14.811255707796956
31
0
0
LINE
5
140
100
AcDbEntity
8
0
100
AcDbLine
10
-3.0000000000000004
20
-14.811255707796956
30
0
11
-3.0000000000000004
21
-7.811255707796958
31
0
0
ENDSEC
0
SECTION
2
OBJECTS
0
DICTIONARY
5
C
100
AcDbDictionary
3
ACAD_GROUP
350
D
3
ACAD_MLINESTYLE
350
17
0
DICTIONARY
5
D
100
AcDbDictionary
0
DICTIONARY
5
1A
330
C
100
AcDbDictionary
0
DICTIONARY
5
17
100
AcDbDictionary
0
ENDSEC
0
EOF
