0
SECTION
2
HEADER
9
$INSUNITS
70
4
9
$ACADVER
1
AC1014
9
$HANDSEED
5
FFFF
0
ENDSEC
0
SECTION
2
TABLES
0
TABLE
2
VPORT
5
8
100
AcDbSymbolTable
0
ENDTAB
0
TABLE
2
LTYPE
5
5
100
AcDbSymbolTable
0
LTYPE
5
14
100
AcDbSymbolTableRecord
100
AcDbLinetypeTableRecord
2
BYBLOCK
70
0
0
LTYPE
5
15
100
AcDbSymbolTableRecord
100
AcDbLinetypeTableRecord
2
BYLAYER
70
0
0
ENDTAB
0
TABLE
2
LAYER
5
2
100
AcDbSymbolTable
70
2
0
LAYER
5
50
100
AcDbSymbolTableRecord
100
AcDbLayerTableRecord
2
0
70
0
6
CONTINUOUS
0
ENDTAB
0
TABLE
2
STYLE
5
3
100
AcDbSymbolTable
70
1
0
STYLE
5
11
100
AcDbSymbolTableRecord
100
AcDbTextStyleTableRecord
2
STANDARD
70
0
0
ENDTAB
0
TABLE
2
VIEW
5
6
100
AcDbSymbolTable
70
0
0
ENDTAB
0
TABLE
2
UCS
5
7
100
AcDbSymbolTable
70
0
0
ENDTAB
0
TABLE
2
APPID
5
9
100
AcDbSymbolTable
70
2
0
APPID
5
12
100
AcDbSymbolTableRecord
100
AcDbRegAppTableRecord
2
ACAD
70
0
0
ENDTAB
0
TABLE
2
DIMSTYLE
5
A
100
AcDbSymbolTable
70
1
0
ENDTAB
0
TABLE
2
BLOCK_RECORD
5
1
100
AcDbSymbolTable
70
1
0
BLOCK_RECORD
5
1F
100
AcDbSymbolTableRecord
100
AcDbBlockTableRecord
2
*MODEL_SPACE
0
BLOCK_RECORD
5
1B
100
AcDbSymbolTableRecord
100
AcDbBlockTableRecord
2
*PAPER_SPACE
0
ENDTAB
0
ENDSEC
0
SECTION
2
BLOCKS
0
BLOCK
5
20
100
AcDbEntity
100
AcDbBlockBegin
2
*MODEL_SPACE
0
ENDBLK
5
21
100
AcDbEntity
100
AcDbBlockEnd
0
BLOCK
5
1C
100
AcDbEntity
100
AcDbBlockBegin
2
*PAPER_SPACE
0
ENDBLK
5
1D
100
AcDbEntity
100
AcDbBlockEnd
0
ENDSEC
0
SECTION
2
ENTITIES
0
SPLINE
5
100
100
AcDbEntity
8
0
100
AcDbSpline
70
0
71
3
72
14
73
10
74
0
42
0.000000001
43
0.0000000001
44
0.0000000001
40
-1
40
-1
40
-1
40
-1
40
-0.62915169457064668
40
-0.62915169457064668
40
-0.62915169457064668
40
-0.26389461948437659
40
-0.26389461948437659
40
-0.26389461948437659
40
0
40
0
40
0
40
0
10
145.70206268627851
20
-26.349168744426077
30
0
10
148.81580096074018
20
-25.23450724992135
30
0
10
151.45558861381033
20
-24.567797566065863
30
0
10
154.11084379350407
20
-24.569986141027599
30
0
10
156.72606604568546
20
-24.572141719137104
30
0
10
159.26722086860511
20
-25.252215278775381
30
0
10
162.05527724955977
20
-26.567983152722192
30
0
10
164.0696203737258
20
-27.518612411150517
30
0
10
166.23806360279883
20
-28.79740355814819
30
0
10
168.78368739972063
20
-30.43657063960957
30
0
0
SPLINE
5
101
100
AcDbEntity
8
0
100
AcDbSpline
70
0
71
3
72
11
73
7
74
0
42
0.000000001
43
0.0000000001
44
0.0000000001
40
-1
40
-1
40
-1
40
-1
40
-0.34038900492048119
40
-0.34038900492048119
40
-0.34038900492048119
40
0
40
0
40
0
40
0
10
168.78368916375524
20
-30.436571775500415
30
0
10
174.50411378157958
20
-34.120051379703334
30
0
10
179.8258622524076
20
-35.867173405343536
30
0
10
185.48136783509977
20
-35.92968131610364
30
0
10
188.39986363334333
20
-35.96193821555196
30
0
10
191.42069840944612
20
-35.53845934372837
30
0
10
194.64104019566147
20
-34.647111901116354
30
0
0
SPLINE
5
102
100
AcDbEntity
8
0
100
AcDbSpline
70
0
71
3
72
11
73
7
74
0
42
0.000000001
43
0.0000000001
44
0.0000000001
40
-0.99999994648362944
40
-0.99999994648362944
40
-0.99999994648362944
40
-0.99999994648362944
40
-0.21643957722183305
40
-0.21643957722183305
40
-0.21643957722183305
40
0
40
0
40
0
40
0
10
194.64104019566125
20
-34.647111901115551
30
0
10
203.02290497338146
20
-32.327115599824111
30
0
10
209.51252080800555
20
-27.333971931266078
30
0
10
212.88322759637677
20
-21.083135580826657
30
0
10
213.81430372124657
20
-19.356493409979517
30
0
10
214.51016822404551
20
-17.532481122569589
30
0
10
214.94842884223218
20
-15.631841264257488
30
0
0
SPLINE
5
103
100
AcDbEntity
8
0
100
AcDbSpline
70
4
71
5
72
16
73
10
74
0
42
0.000000001
43
0.0000000001
44
0.0000000001
40
0
40
0
40
0
40
0
40
0
40
0
40
0.20000000000000001
40
0.40000000000000002
40
0.60000000000000009
40
0.80000000000000004
40
1
40
1
40
1
40
1
40
1
40
1
41
1
41
1
41
1
41
1
41
1
41
1
41
1
41
1
41
1
41
1
10
215.28147074195908
20
-14.018760808258254
30
0
10
215.34787345628342
20
-13.678425631078444
30
0
10
215.48408077965465
20
-13.007464621253655
30
0
10
215.69859300607743
20
-12.030125713872859
30
0
10
216.00629813865135
20
-10.77785553223004
30
0
10
216.44401224247034
20
-9.2736885651852514
30
0
10
216.86291528442405
20
-8.1073741534821977
30
0
10
217.23503466989072
20
-7.2518652767122482
30
0
10
217.51297599778059
20
-6.6904643795976524
30
0
10
217.65941881237597
20
-6.4120000458812143
30
0
0
SPLINE
5
104
100
AcDbEntity
8
0
100
AcDbSpline
70
4
71
3
72
8
73
4
74
0
42
0.000000001
43
0.0000000001
44
0.0000000001
40
-1
40
-1
40
-1
40
-1
40
0
40
0
40
0
40
0
41
1
41
1
41
1
41
1
10
217.65941881237595
20
-6.4120000458812134
30
0
10
216.7439577444589
20
4.400039858962506
30
0
10
212.19958353983853
20
12.473998205370226
30
0
10
204.26862772886284
20
17.379252965698843
30
0
0
SPLINE
5
105
100
AcDbEntity
8
0
100
AcDbSpline
70
4
71
3
72
8
73
4
74
0
42
0.000000001
43
0.0000000001
44
0.0000000001
40
-1
40
-1
40
-1
40
-1
40
0
40
0
40
0
40
0
41
1
41
1
41
1
41
1
10
204.26862772886284
20
17.379252965698843
30
0
10
201.5052892753246
20
19.088336023190674
30
0
10
199.6741222983382
20
19.903052608280909
30
0
10
196.53525872767833
20
20.819982723111004
30
0
0
SPLINE
5
106
100
AcDbEntity
8
0
100
AcDbSpline
70
4
71
3
72
8
73
4
74
0
42
0.000000001
43
0.0000000001
44
0.0000000001
40
-1
40
-1
40
-1
40
-1
40
0
40
0
40
0
40
0
41
1
41
1
41
1
41
1
10
196.53525872767833
20
20.819982723111004
30
0
10
192.68996722275577
20
21.943260370207838
30
0
10
190.57278772532857
20
22.351850071322531
30
0
10
181.30674529110968
20
22.351850071322531
30
0
0
LINE
5
107
100
AcDbEntity
8
0
100
AcDbLine
10
181.30674529110968
20
22.351850071322531
30
0
11
66.576788229783006
21
22.351850071322531
31
0
0
SPLINE
5
108
100
AcDbEntity
8
0
100
AcDbSpline
70
4
71
3
72
8
73
4
74
0
42
0.000000001
43
0.0000000001
44
0.0000000001
40
-1
40
-1
40
-1
40
-1
40
0
40
0
40
0
40
0
41
1
41
1
41
1
41
1
10
66.57678822978302
20
22.351850071322531
30
0
10
32.924228100670184
20
22.573056949939406
30
0
10
32.64401623518571
20
22.567192138765336
30
0
10
30.340818470697567
20
21.673973359264597
30
0
0
SPLINE
5
109
100
AcDbEntity
8
0
100
AcDbSpline
70
4
71
3
72
8
73
4
74
0
42
0.000000001
43
0.0000000001
44
0.0000000001
40
-1
40
-1
40
-1
40
-1
40
0
40
0
40
0
40
0
41
1
41
1
41
1
41
1
10
30.340818470697567
20
21.673973359264597
30
0
10
27.490507849141341
20
20.568561464989195
30
0
10
24.905130656791613
20
18.225737690281555
30
0
10
23.19053070260459
20
15.669213510635888
30
0
0
SPLINE
5
110
100
AcDbEntity
8
0
100
AcDbSpline
70
4
71
3
72
8
73
4
74
0
42
0.000000001
43
0.0000000001
44
0.0000000001
40
-1
40
-1
40
-1
40
-1
40
0
40
0
40
0
40
0
41
1
41
1
41
1
41
1
10
21.510341554557627
20
11.74499947703357
30
0
10
20.68610676967721
20
8.1127197744881308
30
0
10
20.235371124209923
20
6.5068134127491906
30
0
10
19.145022998995504
20
4.8705102837596934
30
0
0
SPLINE
5
111
100
AcDbEntity
8
0
100
AcDbSpline
70
4
71
3
72
8
73
4
74
0
42
0.000000001
43
0.0000000001
44
0.0000000001
40
-1
40
-1
40
-1
40
-1
40
0
40
0
40
0
40
0
41
1
41
1
41
1
41
1
10
23.19053070260459
20
15.669213510635888
30
0
10
22.635371070565746
20
14.706813229464908
30
0
10
21.886727759668396
20
13.141731465185543
30
0
10
21.510341554557627
20
11.74499947703357
30
0
0
SPLINE
5
112
100
AcDbEntity
8
0
100
AcDbSpline
70
4
71
3
72
8
73
4
74
0
42
0.000000001
43
0.0000000001
44
0.0000000001
40
-1
40
-1
40
-1
40
-1
40
0
40
0
40
0
40
0
41
1
41
1
41
1
41
1
10
19.145022998995504
20
4.8705102837596934
30
0
10
17.809873591136313
20
3.2034174838629226
30
0
10
14.03537178433136
20
0.5068135468596412
30
0
10
11.425824179492075
20
-0.64426122229311522
30
0
0
SPLINE
5
113
100
AcDbEntity
8
0
100
AcDbSpline
70
4
71
3
72
8
73
4
74
0
42
0.000000001
43
0.0000000001
44
0.0000000001
40
-1
40
-1
40
-1
40
-1
40
0
40
0
40
0
40
0
41
1
41
1
41
1
41
1
10
8.3155305107745541
20
-1.6457839551935913
30
0
10
7.0862442960794851
20
-2.0034662733517701
30
0
10
5.1945097390781259
20
-1.8652993506748758
30
0
10
2.3999999463558197
20
-2.6499999407678843
30
0
0
SPLINE
5
114
100
AcDbEntity
8
0
100
AcDbSpline
70
0
71
3
72
20
73
16
74
0
42
0.000000001
43
0.0000000001
44
0.0000000001
40
-0.92500925505858544
40
-0.92500925505858544
40
-0.92500925505858544
40
-0.92500925505858544
40
-0.86172343661573159
40
-0.86172343661573159
40
-0.86172343661573159
40
-0.52017574249044052
40
-0.52017574249044052
40
-0.52017574249044052
40
-0.26008787124522026
40
-0.26008787124522026
40
-0.26008787124522026
40
-0.11113486112077964
40
-0.11113486112077964
40
-0.11113486112077964
40
-0.028271763419974852
40
-0.028271763419974852
40
-0.028271763419974852
40
-0.028271763419974852
10
4.6207345457064655
20
-4.1919886077646176
30
0
10
4.7190776805566594
20
-4.7996428796208521
30
0
10
4.8425275250520672
20
-5.4977586290947844
30
0
10
4.9833531709949686
20
-6.271669805507825
30
0
10
5.7433761244617854
20
-10.448396665734009
30
0
10
6.999445051502958
20
-16.744081793558891
30
0
10
7.4655658148980564
20
-23.022897398136092
30
0
10
7.8205158238714914
20
-27.804202652495967
30
0
10
7.7508669221367672
20
-32.581262642116606
30
0
10
6.5033861299345492
20
-36.595365610067944
30
0
10
5.7889505886641608
20
-38.894252971340052
30
0
10
4.6594292119374963
20
-40.977408453921036
30
0
10
2.8965406236319735
20
-42.511748588466176
30
0
10
1.9158393326251306
20
-43.365307548898471
30
0
10
0.74448821029622803
20
-44.032431243741151
30
0
10
-0.57720379006350431
20
-44.449094180521357
30
0
0
SPLINE
5
115
100
AcDbEntity
8
0
100
AcDbSpline
70
0
71
3
72
17
73
13
74
0
42
0.000000001
43
0.0000000001
44
0.0000000001
40
-0.92655623863570691
40
-0.92655623863570691
40
-0.92655623863570691
40
-0.92655623863570691
40
-0.58915023892134122
40
-0.58915023892134122
40
-0.58915023892134122
40
-0.31009254684205867
40
-0.31009254684205867
40
-0.31009254684205867
40
-0.038060345371287774
40
-0.038060345371287774
40
-0.038060345371287774
40
0
40
0
40
0
40
0
10
-0.57720379006350242
20
-44.449094180521371
30
0
10
-0.78120703357740706
20
-46.221988622459911
30
0
10
-0.4907244228648554
20
-47.771252318670498
30
0
10
0.053454931214566848
20
-48.830608096378313
30
0
10
0.50352823979578543
20
-49.706767319001074
30
0
10
1.0830738842527474
20
-50.23917275233778
30
0
10
1.7539436726634632
20
-50.507988329655319
30
0
10
2.4079238015815658
20
-50.770036269428822
30
0
10
3.2205363314118109
20
-50.830598601869461
30
0
10
4.3766588152599875
20
-50.41922618427536
30
0
10
4.5384132722282029
20
-50.361670585323466
30
0
10
4.7061012261468447
20
-50.294423530059014
30
0
10
4.879485994231457
20
-50.216599245671254
30
0
0
SPLINE
5
116
100
AcDbEntity
8
0
100
AcDbSpline
70
0
71
3
72
11
73
7
74
0
42
0.000000001
43
0.0000000001
44
0.0000000001
40
-0.99999990234569935
40
-0.99999990234569935
40
-0.99999990234569935
40
-0.99999990234569935
40
0
40
0
40
0
40
0.0015399126854286347
40
0.0015399126854286347
40
0.0015399126854286347
40
0.0015399126854286347
10
4.8794859942312172
20
-50.216599245670757
30
0
10
9.5082108025443777
20
-48.138977802761183
30
0
10
13.768703816943791
20
-46.238531860090326
30
0
10
19.56728037400147
20
-44.922718573740482
30
0
10
19.575905780730764
20
-44.920761296008109
30
0
10
19.584531187460055
20
-44.918804018275736
30
0
10
19.593156594189335
20
-44.916846740543377
30
0
0
SPLINE
5
117
100
AcDbEntity
8
0
100
AcDbSpline
70
0
71
3
72
14
73
10
74
0
42
0.000000001
43
0.0000000001
44
0.0000000001
40
-1.0010531353013248
40
-1.0010531353013248
40
-1.0010531353013248
40
-1.0010531353013248
40
-1
40
-1
40
-1
40
-0.40596615554466298
40
-0.40596615554466298
40
-0.40596615554466298
40
0
40
0
40
0
40
0
10
19.593156594188983
20
-44.916846740541516
30
0
10
19.601830890526184
20
-44.915118978619013
30
0
10
19.610505186863371
20
-44.91339121669651
30
0
10
19.619179483200558
20
-44.911663454774015
30
0
10
24.650682417137464
20
-43.909479664379603
30
0
10
30.381135262615508
20
-43.316417504229754
30
0
10
35.414249061681645
20
-43.194114996176637
30
0
10
38.853908061749443
20
-43.110532756761771
30
0
10
41.948478900081234
20
-43.238748078113076
30
0
10
44.363706599047205
20
-43.656204984154485
30
0
0
SPLINE
5
118
100
AcDbEntity
8
0
100
AcDbSpline
70
0
71
3
72
11
73
7
74
0
42
0.000000001
43
0.0000000001
44
0.0000000001
40
-0.999999774934617
40
-0.999999774934617
40
-0.999999774934617
40
-0.999999774934617
40
-0.32724162218225938
40
-0.32724162218225938
40
-0.32724162218225938
40
0
40
0
40
0
40
0
10
44.363706599048257
20
-43.656204984147024
30
0
10
49.917329887535317
20
-44.616098600242545
30
0
10
54.60485825366392
20
-46.863783243553513
30
0
10
58.5393308686061
20
-50.583581948521193
30
0
10
60.453128859277633
20
-52.392958702151077
30
0
10
62.19179175436981
20
-54.538435435782276
30
0
10
63.808361416384336
20
-57.030550532349864
30
0
0
SPLINE
5
119
100
AcDbEntity
8
0
100
AcDbSpline
70
0
71
3
72
14
73
10
74
0
42
0.000000001
43
0.0000000001
44
0.0000000001
40
-0.99999995862901225
40
-0.99999995862901225
40
-0.99999995862901225
40
-0.99999995862901225
40
-0.53058866923633796
40
-0.53058866923633796
40
-0.53058866923633796
40
-0.15890377286914548
40
-0.15890377286914548
40
-0.15890377286914548
40
-0.13187446902628983
40
-0.13187446902628983
40
-0.13187446902628983
40
-0.13187446902628983
10
63.808361416384386
20
-57.030550532349828
30
0
10
64.778545879487027
20
-58.526192893233386
30
0
10
65.600674292682683
20
-59.677663611912394
30
0
10
66.245460489489034
20
-60.464149632947795
30
0
10
66.756009119559337
20
-61.086897704475859
30
0
10
67.173497463841272
20
-61.479390638144771
30
0
10
67.341463189596567
20
-61.601593778239945
30
0
10
67.353677828073941
20
-61.61048051492596
30
0
10
67.364380054969786
20
-61.617960472905324
30
0
10
67.373382978914407
20
-61.624051255688627
30
0
0
SPLINE
5
120
100
AcDbEntity
8
0
100
AcDbSpline
70
0
71
3
72
11
73
7
74
0
42
0.000000001
43
0.0000000001
44
0.0000000001
40
-1
40
-1
40
-1
40
-1
40
-0.41615167894937588
40
-0.41615167894937588
40
-0.41615167894937588
40
-1.0517434430590278e-06
40
-1.0517434430590278e-06
40
-1.0517434430590278e-06
40
-1.0517434430590278e-06
10
72.89976082900202
20
-61.130520646082751
30
0
10
74.524452760270648
20
-60.778014169567044
30
0
10
77.267347810099452
20
-60.007652686791573
30
0
10
80.045031123425673
20
-59.132098853044866
30
0
10
82.024885498856733
20
-58.508028758245949
30
0
10
84.037110496656467
20
-57.828015552322171
30
0
10
85.720827963632587
20
-57.204524041601069
30
0
0
SPLINE
5
121
100
AcDbEntity
8
0
100
AcDbSpline
70
0
71
3
72
11
73
7
74
0
42
0.000000001
43
0.0000000001
44
0.0000000001
40
-0.90541620881095564
40
-0.90541620881095564
40
-0.90541620881095564
40
-0.90541620881095564
40
-0.68437663780114688
40
-0.68437663780114688
40
-0.68437663780114688
40
-3.5076383934073974e-06
40
-3.5076383934073974e-06
40
-3.5076383934073974e-06
40
-3.5076383934073974e-06
10
67.373382978914378
20
-61.624051255688663
30
0
10
67.474692895097817
20
-61.64465587623053
30
0
10
67.764579285953644
20
-61.6789718806492
30
0
10
68.126771881949381
20
-61.685871106898176
30
0
10
69.248176884279843
20
-61.707232191893702
30
0
10
71.136008838412309
20
-61.513170899091598
30
0
10
72.899760828968397
20
-61.130520645877496
30
0
0
SPLINE
5
122
100
AcDbEntity
8
0
100
AcDbSpline
70
0
71
3
72
11
73
7
74
0
42
0.000000001
43
0.0000000001
44
0.0000000001
40
-1
40
-1
40
-1
40
-1
40
-0.073289733888462272
40
-0.073289733888462272
40
-0.073289733888462272
40
0
40
0
40
0
40
0
10
85.720827963651786
20
-57.204524041644561
30
0
10
89.965136779656319
20
-55.632795247718747
30
0
10
96.54334372451693
20
-53.126056519156968
30
0
10
99.749571125717324
20
-51.86197296035634
30
0
10
100.00313856919226
20
-51.762001749261408
30
0
10
100.23543734678599
20
-51.669876647578207
30
0
10
100.44321521908199
20
-51.586855915968322
30
0
0
SPLINE
5
123
100
AcDbEntity
8
0
100
AcDbSpline
70
0
71
3
72
11
73
7
74
0
42
0.000000001
43
0.0000000001
44
0.0000000001
40
-0.99999998482591257
40
-0.99999998482591257
40
-0.99999998482591257
40
-0.99999998482591257
40
-0.21777440725942721
40
-0.21777440725942721
40
-0.21777440725942721
40
0
40
0
40
0
40
0
10
120.28417651233495
20
-40.616745169878058
30
0
10
131.52038621458476
20
-33.528440087785746
30
0
10
137.60180763241121
20
-29.928973054138858
30
0
10
142.17045348598
20
-27.809041889096161
30
0
10
143.44238088297774
20
-27.218845446870105
30
0
10
144.59715794601999
20
-26.744705638907305
30
0
10
145.70206094060421
20
-26.349169369346541
30
0
0
SPLINE
5
124
100
AcDbEntity
8
0
100
AcDbSpline
70
0
71
3
72
11
73
7
74
0
42
0.000000001
43
0.0000000001
44
0.0000000001
40
-1
40
-1
40
-1
40
-1
40
-0.38313614268295504
40
-0.38313614268295504
40
-0.38313614268295504
40
0
40
0
40
0
40
0
10
100.4432262292339
20
-51.586851516736623
30
0
10
102.90452937951622
20
-50.603418246028284
30
0
10
106.77167773970129
20
-48.631197122602302
30
0
10
111.27432442556875
20
-46.051561271041194
30
0
10
114.07093288726502
20
-44.449341076146858
30
0
10
117.12411056303181
20
-42.610254810786053
30
0
10
120.28417651233499
20
-40.616745169878179
30
0
0
CIRCLE
5
125
100
AcDbEntity
8
0
100
AcDbCircle
10
172.53567983071449
20
7.2325036606964064
30
0
40
9.9999999999999964
210
0
220
-0
230
1
0
CIRCLE
5
126
100
AcDbEntity
8
0
100
AcDbCircle
10
129.07268814392609
20
6.5257883487161052
30
0
40
9.9999999999999964
210
0
220
-0
230
1
0
CIRCLE
5
127
100
AcDbEntity
8
0
100
AcDbCircle
10
86.535679830715765
20
7.2325036606963611
30
0
40
9.9999999999999964
210
0
220
-0
230
1
0
CIRCLE
5
128
100
AcDbEntity
8
0
100
AcDbCircle
10
43.412138041879125
20
7.7395332750504275
30
0
40
9.9999999999999964
210
0
220
-0
230
1
0
LINE
5
129
100
AcDbEntity
8
0
100
AcDbLine
10
172.47610568955622
20
10.000000149011612
30
0
11
172.47610568955622
21
5.000000074505806
31
0
0
LINE
5
130
100
AcDbEntity
8
0
100
AcDbLine
10
174.9983973480945
20
7.1896667530641327
30
0
11
169.9983973480945
21
7.1896667530641327
31
0
0
LINE
5
131
100
AcDbEntity
8
0
100
AcDbLine
10
129.06617933019669
20
7.8783956467552594
30
0
11
129.05544150036613
21
4.732211506409028
31
0
0
LINE
5
132
100
AcDbEntity
8
0
100
AcDbLine
10
130.93456172070947
20
6.5576425775996743
30
0
11
127.18705910985335
21
6.5576425775996743
31
0
0
LINE
5
133
100
AcDbEntity
8
0
100
AcDbLine
10
86.519904294346773
20
8.7803337456506831
30
0
11
86.550254907436539
21
5.5935193712247964
31
0
0
LINE
5
134
100
AcDbEntity
8
0
100
AcDbLine
10
88.76584966298978
20
7.2628030911621657
30
0
11
84.440887297697486
21
7.2021018649826249
31
0
0
LINE
5
135
100
AcDbEntity
8
0
100
AcDbLine
10
43.41510015886719
20
9.1570160204400768
30
0
11
43.359745582138629
21
5.9464505701833756
31
0
0
LINE
5
136
100
AcDbEntity
8
0
100
AcDbLine
10
45.573928651281186
20
7.7547000766497929
30
0
11
41.40388387106271
21
7.7547000766497929
31
0
0
ENDSEC
0
SECTION
2
OBJECTS
0
DICTIONARY
5
C
100
AcDbDictionary
3
ACAD_GROUP
350
D
3
ACAD_MLINESTYLE
350
17
0
DICTIONARY
5
D
100
AcDbDictionary
0
DICTIONARY
5
1A
330
C
100
AcDbDictionary
0
DICTIONARY
5
17
100
AcDbDictionary
0
ENDSEC
0
EOF
